Song name
# A B C D E F G H I J K L M N O P Q R S T U V W X Y Z

Angels And Airwaves - Sirens tab

-------------------------------------------------------------------------------
			     SIRENS- Angels & Airwaves
-------------------------------------------------------------------------------
Tabbed by:Kennedy (cobra_disco)
Album: I-Empire

Tuning: Standard

Im pretty sure this is almost 100% correct. this is the best tab for this song on this 
please comment if you think something is wrong.

Intro/ verse (Bass line) play up till 0:37
e|------------------------------------------------------------------------------|
B|------------------------------------------------------------------------------|
G|------------------------------------------------------------------------------|
D|------------------------------------------------------------------------------|
A|-------5-----5---5-----5-----5---5-----5-----5---5-7-----7-----4--------------|
E|---3-3---3-3---3---7-7---7-7---7---5-5---5-5---5-----5-5---5-5----------------|

verse- guitar that goes on top of the bass line (joins in at 0:07)
e|--0-----0-----0--------2~~~~-------------------------------------------------|
B|--3--3--3--3--3--3-----3~~~~-------------------------------------------------|
G|-----2-----2-----2-----2~~~~-------------------------------------------------|
D|-----------------------------------------------------------------------------|
A|-----------------------------------------------------------------------------|
E|-----------------------------------------------------------------------------|

Pre- Chorus 0:38- 1:02 "la da da, la, da da"
e|---------------------------------------------------------------------------|
B|--7-7--8-8--8-10-----------------------------------------------------------|
G|--6-6--7-7--7-9------------------------------------------------------------|
D|--4-4--5-5--5-7------------------------------------------------------------|
A|---------------------------------------------------------------------------|
E|---------------------------------------------------------------------------|

Chorus starts at 1:03- 1:28 "i do this from time to time"
e|-------------------------------------------------------------------------------------|
B|------------------------------------7------------------------------------------------|
G|----7-6-7---7-6-7-----------7-----9---7----7-6-7---7-6-7-----------7-----9-6-7-------|
D|----------7-------5-7-5-4h5---5h7----------------7-------5-7-5-4h5---5h7-------------|
A|-------------------------------------------------------------------------------------|
E|-------------------------------------------------------------------------------------|

Play the intro/ verse from 1:28- 2:05
Play the Pre- Chorus from 2:05- 2:30
Play the Chorus from 2:30- 2-55

Bridge 2:55 NOTE- "s" = slide
e|--5~~------------------------------------------------------------------------|
B|------7~~-5~~--------------------7-8-7---------------------------------------|
G|--------------6s7-7-7s9-9-9s11-7--------9-9s11-7-----------------------------|
D|-----------------------------------------------------------------------------|
A|-----------------------------------------------------------------------------|
E|-----------------------------------------------------------------------------|
Bridge cont 3:08- 3:20
e|--5~~-----5~~--------------------------------------------------------------|
B|------7~~------------------------7-8-7-------------------------------------|
G|--------------6s7-7-7s9-9-9s11-7-------9-9s11-7----------------------------|
D|---------------------------------------------------------------------------|
A|---------------------------------------------------------------------------|
E|---------------------------------------------------------------------------|


Play the Chorus till the end of the song.
end on:
e|---------------------------------------------------------------------------|
B|---------------------------------------------------------------------------|
G|------7~~~~~~~~------------------------------------------------------------|
D|------7~~~~~~~~------------------------------------------------------------|
A|------5~~~~~~~~------------------------------------------------------------|
E|---------------------------------------------------------------------------|
Tap to rate this tab
# A B C D E F G H I J K L M N O P Q R S T U V W X Y Z