Song name
# A B C D E F G H I J K L M N O P Q R S T U V W X Y Z

Angels And Airwaves - Some Origins Of Fire tab

INTRO
Guitar 1 (listen to the song for the strumming)
e|----------------------------------|
B|----------------------------------|
G|----2-2-2-2-2-2-2-2---------------|
D|----x-x-x-x-x-x-x-x---------------|
A|----0-0-0-0-0-0-0-0---------------|
E|----------------------------------|

or you can also play it this way

e|----------------------------------|
B|----------------------------------|
G|----------------------------------|
D|----7-7-7-7-7-7-7-7---------------|
A|----0-0-0-0-0-0-0-0---------------|
E|----------------------------------|

Guitar 2 palm muted delay and phaser (same delay speed as in the adventure)
e|----------------------------------|
B|----------------------------------|
G|---------------------9------------|
D|----7-6-7-9-7-6-7 ----------------|
A|----------------------------------|
E|----------------------------------|
...................

Intro part 2 (delay)
e|---------------------------------------------------------------------|
B|---------------------------------------------------------------------|
G|---9-9-9-----------------------------6-6-6--------7-7-7-4-4-4-4-4-4--|
D|----------7-7-7-9-9-9-7-7-7-7-7-7--------7-7-7-----------------------|
A|---------------------------------------------------------------------|
E|---------------------------------------------------------------------|

Verse (palm muted)
e|---------------------------------------------------------|
B|---------------------------------------------------------|
G|--------------------------5-5---5-5-5---5----------------|
D|----5-5---5-5-5---5-----5-5---5-5-5---5------------------|
A|----5-5---5-5-5---5-----7-7---7-7-7---7------------------|
E|----7-7---7-7-7---7--------------------------------------|
... ...... . .... ...... .

Theres a second delayed guitar here but I couldn't figure it out since I can barely 
to it (my good headphones broke a week ago :( )

Chorus
I think on the chorus they play the same as on the intro but with an acoustic guitar

Outro (delay, phaser)
e|-------------------------------------------------------------------------------------|
B|-------------------------------------------------------------------------------------|
G|--------9------------------------------9------------------------------------------9--|
D|------7---7~--7777777~---7-6h7-7---7-7-9/11-7-----7777777~---7-6h7-7---7-7-9/11-9----|
A|--(0)--------------------------------------------------------------------------------|
E|-------------------------------------------------------------------------------------|

e|--------------------------12--------------------10-9-----------------|
B|-------10~-10-9h10-10----10-10-12/14-10-------10-12------------------|
G|----9~---------------------------------------------------------------|
D|-0~------------------------------------------------------------------|
A|---------------------------------------------------------------------|
E|---------------------------------------------------------------------|
Tap to rate this tab
 
# A B C D E F G H I J K L M N O P Q R S T U V W X Y Z