Angels And Airwaves - Some Origins Of Fire tab

Angels & Airwaves - Some Origins Of Fire
LOVE

This is my take on it, see what you think :)  


e|---------------|
B|----10---10----| (This is a short clean riff played when the song
G|--7----7----7~-|  is first starting, played four times)
D|---------------|
A|---------------|
E|---------------|

e|-------------------------|
B|-------------------------| Gtr 1
G|-------------------------| Intro A
D|-7-7-7--7-7--7--7--7-7-7-|
A|-0-0-0--0-0--0--0--0-0-0-|
E|-5-5-5--5-5--5--5--5-5-5-|

e|---------------------|
B|---------------------| Gtr 2
G|-9---9---------------| Delay (Approximately  300ms  8 Repeats) 
D|---7---7-6-9-6-9-6-7-| Intro A
A|---------------------|
E|---------------------|
   . . . . . . . . . . 



e|-------------------|
B|-------------------| Gtr 1
G|-------------------| Intro B
D|-7~----7~----7-7-7-|
A|-0~----0~----0-0-0-|
E|-5~----5~----5-5-5-|

e|-----------------------------------------------------------------|
B|-----------------------------------------------------------------| Gtr 2
G|-9-9-9---------------------------6-6-6-------7-7-7---------------| Intro B
D|-------7-7-7-9-9-9-7-7-7-7-7-7-7-------7-7-7-------9-9-9-9-9-9-9-|
A|-----------------------------------------------------------------|
E|-----------------------------------------------------------------|


e|----------------------------------------------------------------|
B|----------------------------10-10--10-10--10---12-12--12-12--12-| Verse
G|-----------------------------9--9---9--9---9----9--9---9--9---9-|
D|-7-7--7-7--7---7-7--7-7--7--------------------------------------|
A|-0-0--0-0--0---0-0--0-0--0--------------------------------------|
E|-5-5--5-5--5---5-5--5-5--5--------------------------------------|


e|-0-0-0-0-0-0-0-0-0-0-0-0-0-0-0-0-|
B|-0-0-0-0-0-0-0-0-0-0-0-0-0-0-0-0-| Chorus (Acoustic)
G|-2-2-2-2-2-2-2-2-2-2-2-2-2-2-2-2-|  This part I had no clue, I just tried
D|-2-2-2-2-2-2-2-2-2-2-2-2-2-2-2-2-|  to get something that sounded close
A|---------------------------------|  enough, so if you have a better idea
E|---------------------------------|  use it [= 


Outro Solo 

e|------------------------------------------------------------------------|
B|------------------------------------------------------------------------|
G|-------9-9-----///-------9------------------///-------9-----------------|
D|-2/7-7-----7~---7--7p6------9---9--9/11\7~---7--7p6------9---9--11/12\9-|
A|-----------------------7------7---------------------7------7------------|
E|------------------------------------------------------------------------|

e|--------------------12--10-9-10--9/10--------10p9------------|
B|-------10~---10p9---------------------10~---------10/12~-----|
G|--7~--------------9------------------------------------------|
D|-0~-------------------------------------------------------9~-|
A|--------------------------------------------------------7~---|
E|-------------------------------------------------------------|

e|------------------------------------------------------------------------|
B|------------------------------------------------------------------------|
G|-------9-9-----///-------9------------------///-------9-----------------|
D|-2/7-7-----7~---7--7p6------9---9--9/11\7~---7--7p6------9---9--11/12\9-|
A|-----------------------7------7---------------------7------7------------|
E|------------------------------------------------------------------------|

e|-----------------------------------------------|
B|-------------------------------------------///-|
G|----------------9--7--6--6/7-----7-6---9~---9--|
D|----7~----7p6----------------9~------9---------|
A|-0~-----------7---------------------------7----|
E|-----------------------------------------------|

h = Hammer On
p = Pull off
/ = Slide Up
\ = Slide Down
/// = Tremelo Picking
~ = Let Ring
Tap to rate this tab
 
# A B C D E F G H I J K L M N O P Q R S T U V W X Y Z