Song name
# A B C D E F G H I J K L M N O P Q R S T U V W X Y Z

Angels And Airwaves - Et Ducit Mundum Per Luce tab

-----------------------------------------------------------------------------
	       Et Ducit Mundum Per Luce - Angels And Airwaves
-----------------------------------------------------------------------------
Tabbed by: Mike!

  This is the guitar version:
  (AVA is awesome)

Tuning: Normal

Clean..
e|-------8~-----10~-----12~-----10~-------8~-----10~-----12~-----10~--------|
B|----------8-8-----8-8-----8-8-------------8-8-----8-8-----8-8-------------|
G|--------------------------------------------------------------------------|
D|--------------------------------------------------------------------------|
A|--------------------------------------------------------------------------|
E|--------------------------------------------------------------------------|

Slight Distortion.. (slide quickly after holding the 3)
e|----3/8~----3/10~----3/12~----3/10~----3/8~----3/10~----3/12~----3/10~----|
B|--------------------------------------------------------------------------|
G|---(0)~-------------------------------------------------------------------|
D|---- (^if you can add this octave G [with chorus/reverb etc]    ----------|
A|----------  it can sound pretty nice)   ----------------------------------|
E|--------------------------------------------------------------------------|

With Distortion/Reverb/Chorus, it sometimes sounds better to play it on lower strings 
b or even g
e|--------------------------------------------------------------------------|
B|---8/13~--8/15----8/17~---8/15~-------------------------------------------|
G|-------------------------------------12/17~---12/19~---12/21~-------------|
D|--------------------------------------------------------------------------|
A|--------------------------------------------------------------------------|
E|--------------------------------------------------------------------------|

Repeat this until the end, play around with delay, chorus, reverb, and add some bass to 
a good sound

end on
e|-----3/8~--------|
B|----(8/13~)------|
G|---(12/17~)------|              This sounds especially good when
D|-----------------|               another guitar is playing it
A|-----------------|                   on a different octave
E|-----------------|


or chords, G C   G D   G E
Tap to rate this tab
# A B C D E F G H I J K L M N O P Q R S T U V W X Y Z