Angels And Airwaves - The Flight Of Apollo tab

                                                
Intro: (first part)
e-55-12-9-9-10-9-9-7-5-7-55-|
B--------------------------5|
G---------------------------| X2
D---------------------------|
A---------------------------|
E---------------------------|

(2nd part) "I'm flying, and somethings reaching out"
e-------------------------|
B-------------------------|
G-------------------------|  X4
D-11--9--7--9-6-----------|  
A-------------------------|
E-------------------------|

(Intro): cont. (1:30) 
E---------------------------------------------|
B---------------------------------------------|
G---------------------------------------------| X4
D--------7---5---7---11--7--5-7-5-------------|
A--------7---5---7---11--7--5-7-5-------------|
E--------5---3---5---9---5--3-5-3-------------|

(1:42)
E-------------------------------------|
B-------------------------------------|
G----11-11--11--11--11----------------| X4
D----11-11--11--11--11----9--7--------| 
A-----9--9---9---9---9----7--5--------|
E-------------------------------------|



Pre-chorus:
(Palm muted)

E-----------------------------------------------|
B-----------------------------------------------|
G-----------------------------------------------| X2
D----6666-6666---7777-7777--9999-9999-----------|
A----4444-4444---5555-5555--7777-7777-----------|
E-----------------------------------------------|



Chorus:(2:18)
e-5-4-5-4-5-7-12-10-------|
B-5-5-5-5-5-5-10-10-------|
G-------------------------|  X1
D-------------------------|  
A-------------------------|
E-------------------------|


Toms Ending Outro
e----------------------------------------------------------|
B----------------------------------------------------------|
G----------------------------------------------------------|  
D------------------------------------99-99---------77-77---|  
A-77-77--66-66--77-77--66-66--77-77--77-77--77-77--55-55---|
E-55-55--44-44--55-55--44-44--55-55---------55-55----------|

Tap to rate this tab
 
# A B C D E F G H I J K L M N O P Q R S T U V W X Y Z