Song name
# A B C D E F G H I J K L M N O P Q R S T U V W X Y Z

Angels And Airwaves - The Moon Atomic Fragments And Fictions tab

Angels & Airwaves
The Moon-Atomic (...Fragments & Fictions)
LAnacoura

I know it's not perfect but it's as close to the real thing as i can guess and i 
think it fits well.

/ := slide up
* := let ring
p := pull off


Verse
e-----7-6--2-2-2/4p-0*-------------|
b---0--0--0-0-0-----0*-------------|
g----------------------------------|    x 12
d----------------------------------|
a----------------------------------|
e----------------------------------|


Chorus
e-------------------------------------------------------------------|
b-------------------------------------------------------------------|
g---8--8--8--8--9--9--9--11--11--11--11--11-13-8--8-9-6--6----------|    x 4
d----9--9--9--9--9--9--9---9---9---9---9--------9------9--9---------|
a-------------------------------------------------------------------|
e-------------------------------------------------------------------|


Pre-Verse
e---------------------------------------------|
b--------------------4p0--5p0--4p0--2p0--7*---|
g---------------------------------------------|     x 2
d---------------------------------------------|
a---------------------------------------------|
e---------------------------------------------|

Verse x 3
Pre-Verse x 1
Verse x 2
Pre-Verse x 1
Verse x 1

Chorus x 4

Solo
e-----------2-2-------------9-9-7-----------2-2---------9---11-11-7--------|
b---0-0-000--0-00---0-0-000--0-0----0-0-000--0-00---0-0--00---0--0---------|
g--------------------------------------------------------------------------|     x 2
d--------------------------------------------------------------------------|
a--------------------------------------------------------------------------|
e--------------------------------------------------------------------------|

Chorus to fade
Tap to rate this tab
 
# A B C D E F G H I J K L M N O P Q R S T U V W X Y Z