Song name
# A B C D E F G H I J K L M N O P Q R S T U V W X Y Z

Angels And Airwaves - Et Ducit Mundum Per Luce tab

Angels And Airwaves
Et Ducet Mundum Per Luce
Love
2010 Geffen Records
Submitted by: paramore_fans@yahoo.com

Key: C

Tuning: Standard EADGBe

Chords used:
C - x32010
G - 320003


C---G----C---G--- x32

Piano:
e|-15-15-15-----------------------------|
B|----------13-13-13--15-15-15----------|
G|-----------------------------12-12-12-|
D|--------------------------------------|
A|--------------------------------------|
E|--------------------------------------|


Guitar: with Trill Effects
e|-8----10----12----7----|
B|----8-----8-----8----8-|
G|-----------------------|
D|-----------------------| x24
A|-----------------------|
E|-----------------------|



End on C(hold)
Tap to rate this tab
 
# A B C D E F G H I J K L M N O P Q R S T U V W X Y Z