Song name
# A B C D E F G H I J K L M N O P Q R S T U V W X Y Z

Angels And Airwaves - Do It For Me Now Acoustic tab

do it for me now (acoustic)

this is the aol sessions version

intro
guitar 1
-------------------------------------|
-------------------------------------|
-------------------------------------|
---11-11--9-11-7--7-7-6/7-10/11-11-7-|
-0-----------------------------------|
-------------------------------------|

-------------------------------------------------------------|
-------------------------------------------------------------|
-------------------------------9-9---------------------------|
-11-11--9--11-7--7-7-9--9--6/7-----9-9-7--7-7-6/7-10/11-11-7-|
-------------------------------------------------------------|
-------------------------------------------------------------|

------------------------------|
------------------------------|
------------------------------|
-11-11--11--11-7--7-7-6/7-9-7-|
------------------------------|
------------------------------|

guitar 2
---------------------------------|
---------------------------------|
-----------------7---------------|
-7-------4-------7-------7-------|
-7-------4-------5-------7-------|
-5-------2---------------5-------|

verse
guitar 1
---------------------------------|
---------------------------------|
-----------------7---------------|
-7-------4-------7-------7-------| x2
-7-------4-------5-------7-------|
-5-------2---------------5-------|

guitar 2

---------------------------------|
---------------------------------|
-----------------7---------------|
-7-------4-------7-------7-------|
-7-------4-------5-------7-------|
-5-------2---------------5-------|

------------------|
------------------|
------------------|
--11-11--9-11-7---|   x4
------------------|
------------------|

chorus
guitar 1
---------------------------------|
---------------------------------|
---------7-----------------------|
-4-------7-------7-------6-------|   x2
-4-------5-------7-------6-------|
-2---------------5-------4-------|

guitar 2
-------|
-------|
-14-14-|
-14-14-|
-12-12-|
-------|

--------------------------------------------|
--------------12-12-12/14-------------------|
-14-----------------------14-14-14-14-14-14-|
----11/12-14--------------14-14-14-14-14-14-|   x3
--------------------------------------------|
--------------------------------------------|

-----------------------|
--------------12-12-12-|
-14--------------------|
----11/12-14-----------|
-----------------------|
-----------------------|

pre-verse
guitar 1
-----------------------------------|
-----------------------------------|
-----------------------------------|
-11-11--9-11-7--7-7-6/7-10/11-11-7-|
-----------------------------------|
-----------------------------------|

---------------------------------------------------------|
---------------------------------------------------------|
-------------------------------9-9-----------------------|
-11-11--9--11-7--7-7-9--9--6/7-----9-9-7--7-7-6/7-9-9-7--|
---------------------------------------------------------|
---------------------------------------------------------|

-----------------------|
-----------------------|
-----------------------|
-11-11-9-11-7--7-7-9-7-|
-----------------------|
-----------------------|

guitar 2
---------------------------------|
---------------------------------|
-----------------7---------------|
-7-------4-------7-------7-------|
-7-------4-------5-------7-------|
-5-------2---------------5-------|

verse 2
guitar 1 & 2
---------------------------------|
---------------------------------|
-----------------7---------------|
-7-------4-------7-------7-------|
-7-------4-------5-------7-------|
-5-------2---------------5-------|

chorus
guitar 1
---------------------------------|
---------------------------------|
---------7-----------------------|
-4-------7-------7-------6-------|   x2
-4-------5-------7-------6-------|
-2---------------5-------4-------|

guitar 2
-------||----------------------------------------|
-------||----------12-12-12/14-------------------|
-14-14-||----------------------14-14-14-14-14-14-|
-14-14-||-11/12-14-------------14-14-14-14-14-14-|   x3
-12-12-||----------------------12-12-12-12-12-12-|
-------||----------------------------------------|

-------------------|
----------12-12-12-|
-------------------|
-11/12-14----------|
-------------------|
-------------------|

bridge
guitar 1
---------------------------------|
---------------------------------|
---------7-------6-------7-------|
-7-------7-------6-------7-------|
-7-------5-------4-------5-------|
-5-------------------------------|

guitar 2
-------------------------------------|
-------------------------------------|
-14-------14-------14-------14-------|
-14-------14-------14-------14-------|
-12-------12-------12-------12-------|
-------------------------------------|

final chorus
guitar 1
---------------------------------|
---------------------------------|
-----------------7---------------|
-7-------4-------7-------7-------|
-7-------4-------5-------7-------|
-5-------2---------------5-------|

-----------------|
-----------------|
-----------------|
-7---------------|
-7---------------|
-5---------------|

guitar 2
--------------------------|
--------------------------|
--------------------------|
-11-11--9-11-7--7-7--7-7--|   x4
--------------------------|
--------------------------|
Tap to rate this tab
# A B C D E F G H I J K L M N O P Q R S T U V W X Y Z