Song name
# A B C D E F G H I J K L M N O P Q R S T U V W X Y Z

Angels And Airwaves - Adventure Acoustic tab

Intro:
e|------------------|------------------|-------------------|---------------|
B|------------------|------------------|-------------------|---------------|
G|----11---------11-|----11--------11--|----11----------11-|---11-------11-|
D|-9------9---9-----|-8------8---8-----|-------------------|-8----8---8----|x6
A|(0)----(0)-(0)----|(0)----(0)-(0)----|-11-----11---11----|(0)--(0)-(0)---|
E|------------------|------------------|-------------------|---------------|

Pre-verse: 
e|--------------------|-------------------|-----------------|--------------|
B|--------------------|-------------------|-----------------|--------------|
G|-11-11-11-9-9-9-8-8-|-9-9-9-8-8-8-------|-9-9-9-8-8-8-----|--------------|
D|--------------------|-------------9-9---|-------------9-9-|--------------|x2
A|--------------------|-------------------|-----------------|-7----6-------|
E|--------------------|-------------------|-----------------|------------7-|

e|----------------------------|------------------------|
B|----------------------------|------------------------|
G|-11--X--X--11--X--X--11--13-|-9--X--X--9--X--X--9--X-|
D|----------------------------|------------------------|x2
A|----------------------------|------------------------|
E|----------------------------|------------------------|

e|--------------------|-------------------|-----------------|--------------|
B|--------------------|-------------------|-----------------|--------------|
G|-11-11-11-9-9-9-8-8-|-9-9-9-8-8-8-------|-9-9-9-8-8-8-----|--------------|
D|--------------------|-------------9-9---|-------------9-9-|--------------|
A|--------------------|-------------------|-----------------|-7----6-------|
E|--------------------|-------------------|-----------------|------------7-|


Verse:(each chord about 8 times i think, you can do whatever you want)
e|-----|-----|-----|-----|
B|-----|-----|-----|-----|
G|-----|--9--|-----|-----|Play 4 times D|--6--|--9--|--9--|--6--|
A|--6--|--7--|--9--|--x--|
E|--4--|-----|--7--|--4--|

Chorus:
e|------------------|------------------|-------------------|---------------|
B|------------------|------------------|-------------------|---------------|
G|----11---------11-|----11--------11--|----11----------11-|---11-------11-|
D|-9------9---9-----|-8------8---8-----|-------------------|-8----8---8----|x2
A|(0)----(0)-(0)----|(0)----(0)-(0)----|-11-----11---11----|(0)--(0)-(0)---|
E|------------------|------------------|-------------------|---------------|

Post Chorus:
e|--------------------|-------------------|-----------------|--------------|
B|--------------------|-------------------|-----------------|--------------|
G|-11-11-11-9-9-9-8-8-|-9-9-9-8-8-8-------|-9-9-9-8-8-8-----|--------------|
D|--------------------|-------------9-9---|-------------9-9-|--------------|x2
A|--------------------|-------------------|-----------------|-7----6-------|
E|--------------------|-------------------|-----------------|------------7-|

Verse:
Chorus:x3
Bridge:
e|------------------|-----------------|-----------------|-----------------|
B|------------------|-----------------|-----------------|-----------------|
G|------------------|-----------------|-----------------|-----------------|
D|--9-9-9-9-9-9-9-9-|-9-9-9-9-9-9-9-9-|-9-9-9-9-9-9-9-9-|-9-9-9-9-9-9-9-9-|x6
A|--9-9-9-9-9-9-9-9-|-7-7-7-7-7-7-7-7-|-6-6-6-6-6-6-6-6-|-x-x-x-x-x-x-x-x-|
E|------------------|-----------------|-----------------|-9-9-9-9-9-9-9-9-|

Final Chorus:
e|------------------|---------------|------------------|-------------------|
B|------------------|---------------|------------------|-------------------|
G|------------------|---------------|------------------|-------------------|
D|-9--9--9--9--9--9-|-8--8--8--8--8-|-6--6--6--6--6--6-|-8--8--8--8--8--8--|x4
A|-9--9--9--9--9--9-|-9--9--9--9--9-|-6--6--6--6--6--6-|-9--9--9--9--9--9--|
E|-7--7--7--7--7--7-|-6--6--6--6--6-|-4--4--4--4--4--4-|-6--6--6--6--6--6--|

End On:
E|-----|
B|-----|
G|-----|
D|--9--|
A|--9--|
E|--7--|

Outro:
|------------------------|----------------------|
|------------------------|----------------------|
|-------11---------9---8-|--------11--------9-8-|
|--9-9-----9-8-8---------|---9--9----9-8-8------| x A lot
|------------------------|----------------------|
|------------------------|----------------------|
PM . . .   . . .  .   .      .  .  . . . .  . .

Tap to rate this tab
 
# A B C D E F G H I J K L M N O P Q R S T U V W X Y Z