Song name
# A B C D E F G H I J K L M N O P Q R S T U V W X Y Z

Angels And Airwaves - Gift Acoustic tab

Couldn't find a good tab of this, so listed to it a lot and watched a video of Tom 
playing this and I'm pretty sure this is fairly close.

Just listen to the song to get the strum pattern and order

Capo on 7 (all notes relative to capo)

Intro/Verse riff

e-|----------------------------------|
b-|----------------------------------|
g-|--4-----4-----6---2-----1-----1---|
d-|--2-----2-----2---2-----2-----2---|
a-|--2-----2-----2---2-----2-----2---|
E-|--0-0-0-0-0-0-0-0-0-0-0-0-0-0-0-0-|

Prechorus

e-|------------------------------------|
b-|------------------------------------|
g-|--1-1-1-2---2-2-2-------------------|
d-|--2-2-2-2---2-2-2---2-2-2-4---4-4-4-|
a-|--2-2-2-2---2-2-2---2-2-2-2---2-2-2-|
E-|--0-0-0-0---0-0-0---0-0-0-0---0-0-0-|

Chorus

e-|------------------------------------------------------------------|
b-|------------------------------------------------------------------|
g-|--4-----4-----4---2-----2-----2---1-----1-----1---2-----2-----2---|
d-|--2-----2-----2---2-----2-----2---2-----2-----2---2-----2-----2---|
a-|--2-----2-----2---2-----2-----2---2-----2-----2---2-----2-----2---|
E-|--0-0-0-0-0-0-0-0-0-0-0-0-0-0-0-0-0-0-0-0-0-0-0-0-0-0-0-0-0-0-0-0-|
Tap to rate this tab
 
# A B C D E F G H I J K L M N O P Q R S T U V W X Y Z