Song name
# A B C D E F G H I J K L M N O P Q R S T U V W X Y Z

Angels And Airwaves - Anxiety tab

My first tabs. So have mercy and enjoi. xD
By: Joco (youtube:Day182JJJ//xCodeBleu)

Here's a link to my GUITAR COVER of the song which is where I got a lot of requests to do this:
http://www.youtube.com/watch?v=XmBws0Uk1N8

Tuning: Standard
Effects: Had Distortion and Reverb on the whole time.


Intro: (Add Delay effect)
e|---------------------------|
B|---------------------------|
G|-9-9-9-7-7-7-9-9-9---------| (Repeat till Pre-verse)
D|-------------------10-10-10|
A|---------------------------|
E|---------------------------|

Pre-verse: Guitar
e|--------------|---------------|
B|--------------|---------------|
G|--5--7--------|--5--7-----8---| (Repeat till Verse)
D|--5--7--7--3--|--5--7--7--10--|
A|--3--5--7--3--|--3--5--7--10--|
E|--------5--1--|--------5------|

Pre-verse: Keyboard part (I Added a slight Phaser)
e|-----------------------------------------|
B|-5-5---5----6-6-5-----5-5-------5-5------|
G|-----7------------7-------7-5-------7-5--| x2
D|-----------------------------------------|
A|-----------------------------------------|
E|-----------------------------------------|

e|-----------------------------------------|
B|-5-5---5----8~-6-5-------5----------5----|
G|-----7---------------7-7---5----7-7---5--|
D|-----------------------------------------|
A|-----------------------------------------|
E|-----------------------------------------|

e|-----------------------------------------|
B|-5-5---5----6-6-5-----5-5-------5-5------|
G|-----7------------7-------7-5-------7-5--|
D|-----------------------------------------|
A|-----------------------------------------|
E|-----------------------------------------|

Verse: Palm-muted
e|-----------------------------------------------------------------|
B|-----------------------------------------------------------------|
G|-2-2-2-2-2-2-2-2-4-4-4-4-4-4-4-4-5-5-5-5-5-5-5-5-7-7-7-7-7-7-7-7-| x4
D|-2-2-2-2-2-2-2-2-4-4-4-4-4-4-4-4-5-5-5-5-5-5-5-5-7-7-7-7-7-7-7-7-|
A|-0-0-0-0-0-0-0-0-2-2-2-2-2-2-2-2-3-3-3-3-3-3-3-3-5-5-5-5-5-5-5-5-|
E|-----------------------------------------------------------------|

Chorus:
e|------------------------------------------|
B|------------------------------------------|
G|-------5~------------5~-7~-9~-10-10-10-10-| x2
D|-3~-7~-5~-3-3-3-3----5~-7~-9~-10-10-10-10-|
A|-5~-7~-3~-3-3-3-3----3~-5~-7~-8--8--8--8--|
E|-3~-5~----1-1-1-1-------------------------|

Pre-verse: Guitar
e|--------------|---------------|
B|--------------|---------------|
G|--5--7--------|--5--7-----8---| x2
D|--5--7--7--3--|--5--7--7--10--|
A|--3--5--7--3--|--3--5--7--10--|
E|--------5--1--|--------5------|

Pre-verse: Keyboard part
e|-----------------------------------------|
B|-5-5---5----6-6-5-----5-5-------5-5------|
G|-----7------------7-------7-5-------7-5--| x2
D|-----------------------------------------|
A|-----------------------------------------|
E|-----------------------------------------|

Verse: Palm-muted
e|-----------------------------------------------------------------|
B|-----------------------------------------------------------------|
G|-2-2-2-2-2-2-2-2-4-4-4-4-4-4-4-4-5-5-5-5-5-5-5-5-7-7-7-7-7-7-7-7-| x4
D|-2-2-2-2-2-2-2-2-4-4-4-4-4-4-4-4-5-5-5-5-5-5-5-5-7-7-7-7-7-7-7-7-|
A|-0-0-0-0-0-0-0-0-2-2-2-2-2-2-2-2-3-3-3-3-3-3-3-3-5-5-5-5-5-5-5-5-|
E|-----------------------------------------------------------------|

Chorus:
e|------------------------------------------|
B|------------------------------------------|
G|-------5~------------5~-7~-9~-10-10-10-10-| x4
D|-3~-7~-5~-3-3-3-3----5~-7~-9~-10-10-10-10-|
A|-5~-7~-3~-3-3-3-3----3~-5~-7~-8--8--8--8--|
E|-3~-5~----1-1-1-1-------------------------|

Interlude:
e|------------------|
B|------------------|
G|------7~------5~--| x4
D|----5~------5~----|
A|--3~------3~------|
E|------------------|

Chorus:
e|------------------------------------------|
B|------------------------------------------|
G|-------5~------------5~-7~-9~-10-10-10-10-| x4
D|-3~-7~-5~-3-3-3-3----5~-7~-9~-10-10-10-10-|
A|-5~-7~-3~-3-3-3-3----3~-5~-7~-8--8--8--8--|
E|-3~-5~----1-1-1-1-------------------------|

End:
e|-------|
B|-------|
G|--5~---|
D|--5~---|
A|--3~---|
E|-------|
Tap to rate this tab
# A B C D E F G H I J K L M N O P Q R S T U V W X Y Z