Song name
# A B C D E F G H I J K L M N O P Q R S T U V W X Y Z

Angels And Airwaves - Valkyrie Missile tab

This is the exact tablature used by AVA.
If you disagree, my email is Midgetdancer123@gmail.com.

        ::INTRO::

GUITAR 1:
e|--------------------------------------|
B|--------------------------------------|
G|--------------------------------------|
D|---2---2-0h2-2s4----------------------|   (10x)
A|-0---0-----------5---5-4-5-4-2/4--2p0-|
E|--------------------------------------|

GUITAR 2:
e|-----------------------------------------|
B|-----------------------------------------|
G|-----------------------7----7----6----6--|
D|-----------------------------------------|   (12x)
A|---7----7----7----7--55-5-55-5-44-4-44-4-|
E|-55-5-55-5-55-5-55-5---------------------|

::VERSE::

GUITAR 1:
e|---------------------|
B|---------------------|
G|-6~--------9---7---6-|
D|-x-------------------|   (8x)
A|-4~------------------|
E|------5~-------------|

GUITAR 2:
e|------------------------------|
B|------------------------------|
G|-6666----6666----6666----6666-|
D|-7777----7777----7777----7777-|
A|-0000----0000----0000----0000-|
E|------------------------------|

::CHORUS (BASS PLAYS HERE)::

::INTERLUDE PT.1::

GUITAR 1:
e|-------------7---------------------7---------|
B|---10---10------9--9-9---10---10------9--9-9-|
G|-----9----9------9---------9----9------9-----|
D|--7----7----7-77--7-7---7----7----7-77--7-7--|   (4x)
A|---------------------------------------------|
E|---------------------------------------------|

GUITAR 2:
e|---------------------------------------------|
B|---------------------------------------------|
G|-2~------------------------------------------|
D|-x-------------------------------------------|   (4x)
A|-0~------------------------------------------|
E|---------------------------------------------|

::INTERLUDE PT.2::

GUITAR 1:
e|-------------7---------------------7---------|
B|---10---10------9--9-9---10---10------9--9-9-|
G|-----9----9------9---------9----9------9-----|
D|--7----7----7-77--7-7---7----7----7-77--7-7--|   (4x)
A|---------------------------------------------|
E|---------------------------------------------|

GUITAR 2:
e|----|----------------------|
B|----|----------------------|
G|----|----------------------|
D|----|-12/11--7/9--12/11-11-|  (x6)
A|-0~-|--x/-x--x/x---x/-x--x-|
E|----|-10/-9--5/7--10/-9--9-|

e|----------------------------------------------------|
B|----------------------------------------------------|
G|----------------------------------------------------|
D|----12/11--7/9--7/9--9---12/11--7/9--7/9--9/11--7~~-|
A|-0~--x/-x--x/x--x/x--x----x/-x--x/x--x/x--x/-x--x---|
E|----10/-9--5/7--5/7--7---10/-9--5/7--5/7--7/-9--5~~-|

ENJOY!
Tap to rate this tab
# A B C D E F G H I J K L M N O P Q R S T U V W X Y Z