Song name
# A B C D E F G H I J K L M N O P Q R S T U V W X Y Z

Angels And Airwaves - Sirens tab

(/) Slide Up  (\) Slide Down  (h) Hammer On  


Bass Intro: (Guitar Form) 

E|--------------------------------------------------------------------------|
B|--------------------------------------------------------------------------|
G|--------------------------------------------------------------------------|
D|------0------0---0------0------0---0------0------0---0--------------------|
A|--------------------------------------------------------7------7------4---|
E|-3--3---3--3---3--/7--7---7--7---7--\5--5---5--5---5------5--5---5--5---5-|


Verse: 

E|-------------------------------------------------|
B|-----------------------------------------77------|
G|----9--7------9--7------9--7----------7--77------|
D|----7--7------7--7------7--7---------------------|
A|-------------------------------------------------|
E|-------------------------------------------------|


Pre-Chrous:

E|----------------------------------------|
B|----------------------------------------|
G|----11--11--11/12--12--12--12/14--14----|
D|----11--11--11-12--12--12--12-14--14----|
A|----9---9---9--10--10--10--10-12--12----|
E|----------------------------------------|


Chorus: 

E|---------------------------------------------------------------------|
B|---------------------------------------------------------5---7-7-----|
G|-----7---6h7----2-----7---6h7---0------0---------7-------------------| 
D|-0-0---0-----0------0---0-----0------0-------4h5-----4h5---0---------|
A|---------------------------------------------------------------------|
E|---------------------------------------------------------------------|

Chorus cont.

E|---------------------------------------------------------------------|
B|---------------------------------------------------------5-----------|
G|-----7---6h7----2-----7---6h7---0------0---------7------------7-7----|
D|-0-0---0-----0------0---0-----0------0-------4h5-----4h5---0---------|
A|---------------------------------------------------------------------|
E|---------------------------------------------------------------------|


Bridge:

E|----------------------------------------------------------------------|
B|----------------------------------------------------------------------|
G|--14----11----9----7-7-7-9--7-9--11--7----11--12-11-9----9-11--7------|
D|----------------------------------------------------------------------|
A|--12----9-----7----5-5-5-7--5/7--9---5----9---10\9--7----7/9---5------|
E|----------------------------------------------------------------------|
							
Tap to rate this tab
 
# A B C D E F G H I J K L M N O P Q R S T U V W X Y Z