Song name
# A B C D E F G H I J K L M N O P Q R S T U V W X Y Z

Angels And Airwaves - Surrender tab

Here is the tab to Surrender by AVA 
i also put up a cover of this song on my
YouTube channel check it out!
http://youtu.be/Vs9_XjIu7js

Intro
(0:00-0:26)
e|-------------------------------------|
B|--12-------12-------11------11-------|
G|------11-------11-------11-------11--| x8
D|9---9----9---9----9---9----9---9-----|
A|-------------------------------------|
E|-------------------------------------|

Verse
(0:27-0:40)
e----------|
b----------|
g-44444444-|
d-44444444-|
a-22222222-|
E----------|

Chorus
(0:41-1:07
e------------------------|
b---12--12-14-12-11-12---|
g-11--11-----------------| x8
d------------------------|
a------------------------|
E------------------------|

Chorus Part 2
(1:08-1:35)
e-----------------|
b-----------------|
g-4---------------|
d-4---2----6----2-| x4
a-2---2----6----2-|
E-----0----4----0-|

Pre Verse
(1:36-1:42)
e|-------------------------------------|
B|--12-------12-------11------11-------|
G|------11-------11-------11-------11--|x2
D|9---9----9---9----9---9----9---9-----|
A|-------------------------------------|
E|-------------------------------------|

Verse 2
1:43-2:09)
e----------|
b----------|
g-44444444-|
d-44444444-|
a-22222222-|
E----------|

Chorus
(2:10-2:36)
e------------------------|
b---12--12-14-12-11-12---|
g-11--11-----------------|x8
d------------------------|
a------------------------|
E------------------------|

Chorus Part 2
(2:37-3:04)
e-----------------|
b-----------------|
g-4---------------|
d-4---2----6----2-|
a-2---2----6----2-|
E-----0----4----0-|

Bridge
(3:05-3:23)
e|-14--12--------------|
B|--------14--12-------|
G|---------------------| x3
D|---------------------|
A|---------------------|
E|---------------------|

Chorus Part 2
(3:24-3:50
e-----------------|
b-----------------|
g-4---------------| x4
d-4---2----6----2-|
a-2---2----6----2-|
E-----0----4----0-|

Outro 
(3:51-4:04)
e|-------------------------|
B|-------------------------|
G|-11-11-11-11-9-9-9-9-9-9-| x4 
D|-------------------------|
A|-------------------------|
E|-------------------------|

outro part 2
(4:05-4:24
e----------------------------|
b-12----------12-------------|
g----11-11-11----11-11-11-11-| x8
d----------------------------|
a----------------------------|
E----------------------------|


End on
(4:25)
e----|
b-12-|
g----|
d----|
a----|
E----|


Tap to rate this tab
# A B C D E F G H I J K L M N O P Q R S T U V W X Y Z