Song name
# A B C D E F G H I J K L M N O P Q R S T U V W X Y Z

Angels And Airwaves - Dry Your Eyes tab

Hey everyone I have a Cover of this Song on My you tube Channel
Check it out XxAVAndrew182xX http://youtu.be/G6tWcIm7VSM

Intro
(0:00-0:16)
E---------------------------|
B---------------------------| 
G--5--5---------------------| x7
D--x--x---------------------|
A--3--3---------------------|
E---------------------------|

(0:17-0:27)
E------------------------------------|
B------------------------------------| 
G------------------------------------| 
D--5555-5555---5555---5555-5555-5555-|
A--3333-3333---3333---3333-3333-3333-|
E------------------------------------|

(0:34-0:50)
E---------------------------|
B---------------------------| 
G--9-7-9-4-5----------------| 
D------------5-3-2----------| x2
A---------------------------|
E---------------------------|

(0:30-0:39)
E-------------------------------|
B-------------------------------| 
G-------------------------------| 
D--5555-5555--5555-5555--5555---|
A--3333-3333--3333-3333--3333---|
E-------------------------------|

(0:42-0:48)
E----------------------------|
B----------------------------| 
G----------------------------| 
D--5555-5555-5555--5555-5555-|
A--3333-3333-3333--3333-3333-|
E----------------------------|

(0:51-1:07)
E-------------------------------------------------------|
B-------------------------------------------------------| 
G-------------------------------------------------------| x2
D-9999-9999-9-7777-9999-4444-5555-5555-5-----------2222-|
A-7777-7777-7-5555-7777-2222-3333-3333-3-5555-3333-2222-|
E----------------------------------------3333-1111------|

Verse
(1:08-1:42)
E---------------------------|
B-----------------(8)-------| 
G-Ring out--------(5)-------| x8
D--5------------------------|
A--3------------------------|
E---------------------------|

Chorus
(1:43-1:59)
E----------------------------------------------------|
B----------------------------------------------------| 
G----------------------------------------------------|x2 
D-5555-5555-5--7777-7777-7---------------------------|
A-3333-3333-3--5555-5555-5--7777-7777-7--3333-3333-3-|
E---------------------------5555-5555-5--1111-1111-1-|

Pre-Verse
(2:00-2:16)
E-------------------------------------------------------|
B-------------------------------------------------------| 
G-------------------------------------------------------| x2
D-9999-9999-9-7777-9999-4444-5555-5555-5-----------2222-|
A-7777-7777-7-5555-7777-2222-3333-3333-3-5555-3333-2222-|
E----------------------------------------3333-1111------|

Verse 2
(2:17-2:50)
E---------------------------|
B-----------------(8)-------| 
G-Ring out--------(5)-------| x8
D--5------------------------|
A--3------------------------|
E---------------------------|

Chorus
(2:51-3:25)
E----------------------------------------------------|
B----------------------------------------------------| 
G----------------------------------------------------| x4
D-5555-5555-5--7777-7777-7---------------------------|
A-3333-3333-3--5555-5555-5--7777-7777-7--3333-3333-3-|
E---------------------------5555-5555-5--1111-1111-1-|

Bridge
(3:29-3:41)
E------------------------|
B------------------------| 
G--5-5-5-5---------------| x2
D--x-x-x-x--5555---------|
A--3-3-3-3--3333---------|
E------------------------|

Chorus
(3:42-4:16)
E----------------------------------------------------|
B----------------------------------------------------| 
G----------------------------------------------------| x4
D-5555-5555-5--7777-7777-7---------------------------|
A-3333-3333-3--5555-5555-5--7777-7777-7--3333-3333-3-|
E---------------------------5555-5555-5--1111-1111-1-|

End on
(4:17)
E-------|
B-------| 
G-------| 
D-5-----|
A-3-----|
E-------|


Tap to rate this tab
 
# A B C D E F G H I J K L M N O P Q R S T U V W X Y Z