Song name
# A B C D E F G H I J K L M N O P Q R S T U V W X Y Z

Angels And Airwaves - Saturday Love tab

Here is My Cover of this Song 
http://www.youtube.com/watch?v=F51uT_d-hTw

Intro (Phaser)
e|------------------------|
B|------------------------|
G|------------------------|
D|------------8-8-8-8-8-8-|
A|-5-5-5-5-5-6-6-6-6-6-6--|
E|3-3-3-3-3---------------|

e|-----------------------|
B|-----------------------|
G|-----------------------| x4
D|-----------------------|
A|-7-6-7--x4---7-9-7-x4--|
E|------7----------------|

e|----------------------------|
B|----------------------------|
G|-----11-----8----9----8-----|   x4
D|-----9------9----9----9-----|
A|----------------------------|
E|----------------------------|

e|--------------------------------------|
B|--------------------------------------|
G|---11---------13---8----9--8----9--8--|
D|---9----------9----9----9--9----9--9--| x2
A|--------------------------------------|
E|--------------------------------------|

Verse
e|----------------------------|
B|----------------------------|
G|--4-------------------------|
D|--4------6---------4--------| x3
A|--2------6---------4--------|
E|---------4---------2--------|

Chorus 
e|-----------------------|
B|-----------------------|
G|-------9---------------|
D|--6----9----9----9-----| x2
A|--6----7----9----9-----|
E|--4---------7----6-----|

(Delay)
e|------------------------|
B|------------------------|
G|---11---9----11---9-----|
D|---9----9----9----9-----| x4
A|------------------------|
E|------------------------|

Riff
e|----------------------------------------|
B|----------------------------------------|
G|-------8--------8-----------------------|
D|-----------11------8---9---8---9--------| x2
A|-------------------------------------9--|
E|----------------------------------------|

Bridge -tremolo effect-

e|-----------------------------------------------|
B|-----------------------------------------------|
G|-----------------------------------------------|
D|--9--8--9--11--9--11--13--11--13--14--13--11---| x4
A|-----------------------------------------------|
E|-----------------------------------------------|

End on:

e|-------|
B|-------|
G|-------|
D|--9----|
A|--9----|
E|--7----|
Tap to rate this tab
 
# A B C D E F G H I J K L M N O P Q R S T U V W X Y Z