Song name
# A B C D E F G H I J K L M N O P Q R S T U V W X Y Z

Angels And Airwaves - Moon As My Witness tab

I Made a cover for this song check it out
http://youtu.be/lcYKgQIlu5E


Intro (Phaser)
(0:00-2:38)
e|-------------------|
B|-------------------|
G|-------------------|
D|-------------------|
A|-------------------|
E|-2-2-2-2-2-2-2-2-2-|

Verse
(0:59-1:59)
e|-------------------|
B|-------------------|
G|(11)---11--13--11--|
D|-----9-----11------|
A|-------------------|
E|-------------------|

Bridge (Delay)
(2:11-2:33)
e|--------------------------------|
B|---13-13-13---------------------|
G|--------------10-11-13-------11-|
D|-11---------11---------x2--11---|
A|--------------------------------|
E|--------------------------------|

Outro
(2:55-3:25)
e|---------------|
B|---------------|
G|-4-5-7--5-7-9--|
D|---------------|
A|---------------|
E|---------------|

(3:28-4:20)
e|----------|
B|----------|
G|5-7-9-4-5-|
D|----------|
A|----------|
E|----------|
Tap to rate this tab
# A B C D E F G H I J K L M N O P Q R S T U V W X Y Z