Song name
# A B C D E F G H I J K L M N O P Q R S T U V W X Y Z

Angels And Airwaves - Surrender tab

Surrender by Angels and Airwaves

Great addition to the AVA world of music. This is how I taught myself, based on 
knowledge of what Tom likes to do with a guitar, hence the tuning and capo.

Tuning: Drop D
Capo: 2
(all notes according to capo, where 2nd fret is considered to be open)

*the vocals of the verse, start half way through intro
intro.
e---5---5---4---4----------------------|
B-----5---5---5---5--------------------|
G----2-2-2-2-2-2-2-2--x8---------------|
D--------------------------------------|
A--------------------------------------|
D--------------------------------------|

verse.
e--------------------------------------|
B--------------------------------------|
G---22222222---------------------------|
D---22222222---------------------------|
A---00000000--x8-----------------------|
D--------------------------------------|
p.m.xxxxxxxx

bridge.
e--------------------------------------|
B--------------------------------------|
G---2222222244444444-------------------|
D---22222222444444444444444400000000---|
A---00000000222222224444444400000000---|
D-------------------4444444400000000---| x4
p.m.xxxxxxxxxxxxxxxxxxxxxxxxxxxxxxxx

Chorus.
e--------------------------------------|
B--------------------------------------|
G---22222222---------------------------|
D---22222222000000004444444400000000---|
A---00000000000000004444444400000000---|
D-----------000000004444444400000000---| x4

this can be  played along with the chorus with variation of palm muting
e--------------------------------------|
B--------------------------------------|
G---9999999977777777-------------------|
D---7777777777777777-------------------|
A---0000000000000000-------------------|
D--------------------------------------|

repeat intro

repeat verse and add bridge to the verse

repeat bridge

repeat chorus

solo thing where it slows down.
e---10-9-7-5-12-10-9-7-10-9-7----------|
B--------------------------------------|
G--------------------------------------|
D--------------------------------------|
A--------------------------------------|
D--------------------------------------|

repeat chorus parts

during the "i feel it now"'s and "oh"'s
e--------------------------------------|
B--------------------------------------|
G---9---9---7---77---------------------|
D-----7---7---7---7--------------------|
A-----0---0---0---0--------------------|
D--------------------------------------|

outro.
e--------------------------------------|
B---10---1010----1010---1010---10~-----|
G-----9-9-----9-9----9-9----9-9--------|
D--------------------------------------|
A------0-------0------0------0---------|
D--------------------------------------|

Enjoy and give me 5 stars. thanks dude.
Tap to rate this tab
# A B C D E F G H I J K L M N O P Q R S T U V W X Y Z