Song name
# A B C D E F G H I J K L M N O P Q R S T U V W X Y Z

Angels And Airwaves - Behold A Pale Horse tab

Hi Guys,

Here is just a quick basic tab of the song Behold A Pale Horse from Angels and 
Airwaves LOVE Part 2 album.
Listen to the song to get the parts together.


INTRO
|------------------------------|
|-10---10-9---9-10---10-9------|
|----9------9------9------9----|
|------------------------------|
|------------------------------|
|------------------------------|

|----9----9-10----|-------------|
|-10---10------10-|-10---10-9---|
|-----------------|----9------9-|
|-----------------|-------------|
|-----------------|-------------|
|-----------------|-------------|


Verse Part1 (0:34)
|---------------|
|---------------|
|-2--4--2--1----|
|-2--2--2--2----|
|-2--0--0--0----|
|---------------|

Verse Part2 (0:47)
|-------------|
|-2-0--0-0----|
|-2-3--2-1----|
|-0-0--0-0----|
|-------------|
|-------------|


Verse Part 3 (01:12) and after Chorus (02:02)
|----------------------------------------------------|
|-10--------10--9-------9--10--------10--12----------|
|-----9------------9-----------9-------------10------|
|--------7-----------7------------7-------------7----|
|--0------------0-------0-------------0---0----------|
|----------------------------------------------------|


Chorus (01:42)
|---------------------|
|---------------------|
|----------------7----|
|-7--6--7--6--4--7----|
|-7--7--7--7--4--5----|
|-5--4--5--4--2-------|
Tap to rate this tab
# A B C D E F G H I J K L M N O P Q R S T U V W X Y Z