Song name
# A B C D E F G H I J K L M N O P Q R S T U V W X Y Z

Angels And Airwaves - Surrender tab

0:00  0:26
Repeat 8x
E---------------------------|
B---------------------------|
G----4----4----2----2-------|
D-------4----4----4----4----|
A---------------------------|
E---------------------------|

P.M. palm muting
    0:27 P.M. repeat till 0:40 as many times it needs
E--------------|
B--------------|
G---4444-------|
D---4444-------|
A---2222-------|
E--------------|

0:41  repeat 4 times till 1:07
E---------------------------|
B---------------------------|
G---4----6------------------|
D---4----6----6----2--------|
A---2----4----6----2--------|
E-------------4----0--------|

Chord
1:08  repeat 4 times till 1:35
E-----------------------|
B-----------------------|
G---4-------------------|
D---4----2---6----2-----|
A---2----2---6----2-----|
E--------0---4----0-----|

1:42-1:55 P.M. repeat as many times it needs

E--------------|
B--------------|
G---4444-------|
D---4444-------|
A---2222-------|
E--------------|



1:56-2:09 P.M. repeat 2 times
E----------------------------------------|
B----------------------------------------|
G---4444444466666666---------------------|
D---44444444666666666666666622222222-----|
A---22222222444444446666666622222222-----|
E-------------------4444444400000000-----|

2:10  repeat 4 times till 2:36
E-----------------------|
B-----------------------|
G---4----6--------------|
D---4----6----6---2-----|
A---2----4----6---2-----|
E-------------4---0-----|

Chord
2:37  repeat 4 times till 3:05 and again from 3:24 to the end
E-----------------------|
B-----------------------|
G---4-------------------|
D---4----2---6----2-----|
A---2----2---6----2-----|
E--------0---4----0-----|
Tap to rate this tab
 
# A B C D E F G H I J K L M N O P Q R S T U V W X Y Z