Song name
# A B C D E F G H I J K L M N O P Q R S T U V W X Y Z

Angels And Airwaves - All That We Are tab

All That We Are
Angels And Airwaves
LOVE Part II

Tabbed by: laprocket

*I will start by saying this tab is nowhere near 100% perfect, but hopefully
it will allow others to mess around with it and get a better tab out there.
I realize again that it is not 100%, but it does sound pretty good with the
effects and obviously if you really know how the song goes.

*the exact amount of strums are not shown, this is just to help show
which notes are played more or longer than others.

  Struming at 3:03
e|------------------------------------------------------------------|
B|-----------------------------------------7-7-7-7-7-7-7-7-7-7-7-7--|
G|-----------------------------------------7-7-7-7-7-7-7-7-7-7-7-7--|
D|---7-7-7-7-77-7-7-7-77-7-7-7-77-7-7-7----7-7-7-7-7-7-7-7-7-7-7-7--|
A|---5-5-5-5-55-5-5-5-55-5-5-5-55-5-5-5-----------------------------|
E|------------------------------------------------------------------|
                                    3:25
e|--------------------------------------------------------------------------|
B|---8-8-8-8-8-8-8-8-8-8-8-8---------10-10-10-10-10-10-10-10--8-7--8~---7-8~|
G|---7-7-7-7-7-7-7-7-7-7-7-7-----2/7-7--7--7--7--7--7--7--7-------7---7-----|
D|---7-7-7-7-7-7-7-7-7-7-7-7------------------------------------------------|
A|--------------------------------------------------------------------------|
E|----------------------------12/5------------------------------------------|
                                    3:40
e|--------------------------------------------------------------------------|
B|--8-7----------10~--------*h*------10-10-10-10-10-10-10-10--8-7--8~---7-8~|
G|------7--------------------7-----2/7--7--7--7--7--7--7--7-------7---7-----|
D|---------5-4-----------------0~-------------------------------------------|
A|------------5-------------------------------------------------------------|
E|--------------------3\2/3-------------------------------------------------|
                                            3:53
e|--------------------------------------------------------------------------|
B|--8-7-------------------------------------7-7-7-7-7-7-7-----8-8-8-8-8-8-8-|
G|------7-----------------------------------7-7-7-7-7-7-7-7b~-7-7-7-7-7-7-7-|
D|---------5\4-4\5----------------------------------------------------------|
A|-----------------5~--------7-7--12-12-------------------------------------|
E|--------------------3\2/3--5-5--10-10-------------------------------------|

e|--------------------------------------------------------------------------|
B|------10-10-10-10-10-10-10--10-8-7-8-7------------------------------------|
G|-7b~--7--7--7--7--7--7--7--------------7b7b7b7b7b7b-----------------------|
D|-------------------------------------- ^^this just means to --------------|
A|--------------------------------------- strum a bent 7, as it ------------|
E|---------------------------------------- leads to the next part ----------|

  4:07
e|--------------------------------------------------------------------------|
B|--------------------------------------------------------------------------|
G|-9/11-11-11-11-9\7-7~---9/12-12-12-12-11\9-7~--9/11-11-11-11-9\7-7/14-14--|
D|-x-x--x--x--x--x-x-x----x-x--x--x--x---x-x-x---x-x--x--x--x--x-x-x-x--x---|
A|-7/9--9--9--9--7\5-5~---7/9--9--9--9---9\7-5~--7/9--9--9--9--7\5-5/12-12--|
E|--------------------------------------------------------------------------|

e|--------------------------------------------------------------------------|
B|---------------------------10-10-10-10-10-10-10-10-10-10-10---------------|
G|-12-11--9/11\7-------------9--9--9--9--9--9--9--9--9--9--9----------------|
D|-x--x---x--x-x-------------7--7--7--7--7--7--7--7--7--7--7----------------|
A|-10-9---7/-9\5------------------------------------------------------------|
E|-----------------3\2/3--------------------------------------12/5----------|


e|--------------------------------------------------------------------------|
B|--10-10-10-10-10-10-10-10-10-10-------------------------------------------|
G|--9--9--9--9--9--9--9--9--9--9--------------------------------------------|
D|--7--7--7--7--7--7--7--7--7--7-----7-5-4-4h5------------------------------|
A|---------------------------------------------5----------------------------|
E|------------------------------------------------3\2/3---------------------|

  4:37
e|--------------------------------------------------------------------------|
B|-10-10-10-10-10-10-10--8-8-8-8-8--7--------10-10-10-10-10-10-10---8b------|
G|-7--7--7--7--7--7--7---7-7-7-7-7--7--------7--7--7--7--7--7--7----7-------|
D|--------------------------------------------------------------------------|
A|--------------------------------------------------------------------------|
E|--------------------------------------------------------------------------|

4:50
e|--------------------------------------------------------------------------|
B|--------------------------------------------------------------------------|
G|--------------------------------------------------------------------------|
D|---2/4-2/4\2-0-0---2/5-5-5-5\4\2--0---2/4-4-4-4\2-0-0--/7-7-5-4-4h5-------|
A|---------------5------------------5--------------------------------5------|
E|--------------------------------------------------------------------3\2/3-|


e|--------------------------------------------------------------------------|
B|--10-10-10-10-10-10-10-10-10-10---8~b~8888888-----------------------------|
G|--9--9--9--9--9--9--9--9--9--9----7~b~7777777-----2~~---------------------|
D|--7--7--7--7--7--7--7--7--7--7----5~b~5555555-----2~~---------------------|
A|--------------------------------------------------0~~---------------------|
E|--------------------------------------------------------------------------|
Tap to rate this tab
 
# A B C D E F G H I J K L M N O P Q R S T U V W X Y Z