Song name
# A B C D E F G H I J K L M N O P Q R S T U V W X Y Z

Angels And Airwaves - Sirens Acoustic tab

This is the solo thing from this video
http://www.youtube.com/watch?v=QxV1HRKueL8

s - slide


E |----------------------------|----------------------------|
B |----------------------------|----------------------------|
G |----------------------------|----------------------------|
D |--------7-----6--7-----2----|--------7-----6--7-----0----|
A |--0--0-----0--------0-------|-----0-----0--------0-------|
E |----------------------------|----------------------------|


----------------------------|----------------------------|
----------------------------|----------------------------|
----------------------------|----------------------------|
-----------0-----------7~---|-----------9--------11-11~--|
-----0--0--------4s-5-------|-----5s-7--------0----------|
----------------------------|----------------------------|


----------------------------|----------------------------|
----------------------------|----------------------------|
----------------------------|----------------------------|
--------7-----6--7-----2----|--------7-----6--7-----0----|
-----0-----0--------0-------|-----0-----0--------0-------|
----------------------------|----------------------------|


----------------------------|----------------------------|
----------------------------|----------------------------|
----------------------------|----------------------------|
-----------0-----------7~---|-----------9--------7--7~---|
-----0--0--------4s-5-------|-----5s-7--------0----------|
----------------------------|----------------------------|


----------------------------|----------------------------|
----------------------------|----------------------------|
----------------------------|----------------------------|
--------7-----6--7-----2----|--------7-----6--7-----0----|
-----0-----0--------0-------|-----0-----0--------0-------|
----------------------------|----------------------------|


----------------------------|----------------------------|
----------------------------|----------------------------|
----------------------------|----------------------------|
-----------0-----------7~---|-----------9--------11-11~--|
-----0--0--------4s-5-------|-----5s-7--------0----------|
----------------------------|----------------------------|


----------------------------|----------------------------|
----------------------------|----------------------------|
----------------------------|----------------------------|
--------7-----6--7-----2----|--------7-----6--7-----0----|
-----0-----0--------0-------|-----0-----0--------0-------|
----------------------------|----------------------------|


----------------------------|----------------------------||
----------------------------|----------------------------||
----------------------------|----------------------------||
-----------0-----------7~---|-----------9--------7--7~---||
-----0--0--------4s-5-------|-----5s-7--------0----------||
----------------------------|----------------------------||
Tap to rate this tab
# A B C D E F G H I J K L M N O P Q R S T U V W X Y Z