Song name
# A B C D E F G H I J K L M N O P Q R S T U V W X Y Z

Angels And Airwaves - Letters To God Part 2 tab

Hi, i heard this song yesterday and i just love it! So i try to tab it. I hope you will like it.

I play whole song with light delay!

Tabed by n5ver


Intro part 1:
(many times)

  e--8------------------8----------------|
  B----6-5-6-8-6-5-6------6-5-6-10-6-8-6-|
  G--------------------------------------|
  D--------------------------------------|
  A--------------------------------------|
  E--------------------------------------|
PM:|---.-.-.-.-.-.-.------.-.-.-.-.-.-.-.|

Intro part 2:

e|-------8--8----------------------------------------------------------------|
B|-------------8--6--6--------8--5--5--------5--------5--5-------------------|
G|-5--5-----------------5--5-----------5--5-----7--7--------7----------------|
D|---------------------------------------------------------------------------|
A|---------------------------------------------------------------------------|
E|---------------------------------------------------------------------------|

e|-------8--8----------------------------------------------------------------|
B|-------------8--6--6--------8--5--5--------5-------------------------------|
G|-5--5-----------------5--5-----------5--5-----7--7--7--7--5----------------|
D|---------------------------------------------------------------------------|
A|---------------------------------------------------------------------------|
E|---------------------------------------------------------------------------|


Verse:

Same as intro but PM is on all notes!


Chorus:

e|--------------------------------------------|
B|--5------5--5------5--5--5------5--5--5--5--|
G|---5------5--6------5--6--8------5--6--8--6-|
D|--------------------------------------------|
A|--------------------------------------------|
E|--------------------------------------------|

Solo:

e|-----------------------------------------------------|
B|--6p5-6p5--------6---6--------8---8--------6---8-----|
G|----------5-5------5---5-5------5---5-5------5---5-5-|
D|-----------------------------------------------------|
A|-----------------------------------------------------|
E|-----------------------------------------------------|

Whole song:
Intro pt.1 (many times)
Intro pt.2 (2x)
Verse (many times)
Chorus (1x)
Intro pt.2 (1x)
Verse (many times)
Chorus (2x)
Solo (2x)
Chorus (2x
Tap to rate this tab
 
# A B C D E F G H I J K L M N O P Q R S T U V W X Y Z