Song name
# A B C D E F G H I J K L M N O P Q R S T U V W X Y Z

Angels And Airwaves - The Flight Of Apollo tab

AvA
"The Flight of Apollo"
L()VE Pt.I


Tuning: Drop D + 1/2 step down


Eb|----------------|-----------------|---------------|------------------||
Bb|o---------------|-----------------|---------------|-----------------o||
Gb|----------------|-----------------|---------------|------------------||
Db|--8---8-7-8-7-0-|-(0)-8--8-7-8-3--|-8---8-7-8-7-0-|-(0)-8--8-7-8-3---||
Ab|o-8---8-7-8-7-0-|-(0)-8--8-7-8-3--|-8---8-7-8-7-0-|-(0)-8--8-7-8-3--o||
Db|--8---8-7-8-7-0-|-(0)-8--8-7-8-3--|-8---8-7-8-7-0-|-(0)-8--8-7-8-3---||


||----------------------|---------|------------|---------||
||o---------------------|---------|------------|--------o||
||--12-12-12-12-12------|---------|-10-------8-|-(8)-----||
||---x--x--x--x--x------|---------|--x-------8-|-(8)-----||
||o-10-10-10-10-10------|---------|--8-------6-|-(6)----o||
||----------------------|---------|------------|---------||


    PM------------------------------|
||------------------|-----------------|
||o-----------------|-----------------|
||------------------|-----------------|
||------------------|-----------------|
||o-5-5-5-5-5-5-5-5-|-6-6-6-6-6-6-6-6-|
||------------------|-----------------|


  PM------------------------------|
|-----------------|------------------||
|-----------------|-----------------o||
|-----------------|------------------||
|-----------------|------------------||
|-8-8-8-8-8-8-8-8-|-8-8-8-8-8-8-8-8-o||
|-----------------|------------------||


||-----------|------------|----------|---------||
||o----------|------------|----------|--------o||
||-----------|------------|----------|---------||
||--8--------|-(8)--------|-8--------|-(8)-----||
||o-8--------|-(8)--------|-8--------|-(8)----o||
||--8--------|-(8)--------|-7--------|-(7)-----||


||------------------|-----------------|
||o-----------------|-----------------|
||------------------|-----------------|
||------------------|-----------------|
||o-8-8-x-x-x-x-8-8-|-x-x-x-x-x-x-x-x-|
||--8-8-x-x-x-x-8-8-|-x-x-x-x-x-x-x-x-|


|-----------------|------------------||
|-----------------|-----------------o||
|-----------------|------------------||
|-----------------|------------------||
|-8-8-x-x-x-x-8-8-|-x-x-x-x-x-x-x-x-o||
|-7-7-x-x-x-x-7-7-|-x-x-x-x-x-x-x-x--||
Tap to rate this tab
# A B C D E F G H I J K L M N O P Q R S T U V W X Y Z