Song name
# A B C D E F G H I J K L M N O P Q R S T U V W X Y Z

Angels And Airwaves - Macbeth Pod Cast tab

Here it is...the begining to the macbeth pod cast
e----------------------------------------------------------------------|
B---14------14------14------14------14------14------14------14---------|
G-------14------14------14------14------14------14------14------14-----|  X2
D-----11--11--11--11--12--12--12--12--14--14--14--14--12--12--12--12---|
A----------------------------------------------------------------------|
E----------------------------------------------------------------------|

Then

e-------------------------------------------------------------------|
B-------------------------------------------------------------------|
G----------14--14--10--10---9----9---9---9--------------------------|
D--77----11--11--12--12--11---11---9---9--------7-7-7-777-----------|
A--XX-------------------------------------------X-X-X-XXX-----------|
E--55-------------------------------------------5-5-5-555-----------|

Here ya go, my first tab, enjoy teh new sounds of Tom DeLonge

http://www.angels-and-airwaves.com/
http://AngelsAndAirwaves.co.uk/
http://www.angelsandairwaves.com/Default_main.php
Tap to rate this tab
# A B C D E F G H I J K L M N O P Q R S T U V W X Y Z