Song name
# A B C D E F G H I J K L M N O P Q R S T U V W X Y Z

Angels And Airwaves - First Contact tab

Tabbed by:Tuna
Email:take.off.ur.pants.and.tuna@gmail.com

Tuning:standard

Im 100% sure this is right. Its pretty simple to play and was easy to figure out. I 
wait for their album to come out in April. And for those of you who don't know, their going 
be playing at London Earls Court at Give it a Name 2006!!!

This is the first part of the song (to be played twice):

e|---------------------------------------------------------------------|
B|-14--------14------14------14------14------14-------14------14-------|
G|------14-------14------14------14------14------14-------14------14---|
D|---11----11--11--11--12--12--12--12--14--14--14--14---12--12--12--12-|
A|---------------------------------------------------------------------|
E|---------------------------------------------------------------------|

Then:

e|------------------------------------------------------------|
B|------------------------------------------------------------|
G|----14----14-----10------10--------9----9-------9-----9-----|
D|-11----11-----12-----12-------11-----11-----9------9--------|
A|---0--0--0--0---0---0---0---0----0--0--0--0---0---0--0--0---|
E|------------------------------------------------------------|

Play that a couple of times.

And at the beginning of each one of those a second guitar goes:

e|---------------|
B|---------------|
G|-2-2-222-------|
D|-2-2-222-------|
A|-0-0-000-------|
E|---------------|

At at the very end of the video, when you hear Tom go "Everyone, Everyone will 
well you go:

e|--------------------------------------------------|
B|--------------------------------------------------|
G|--9--9--9---9----9-----9--9--9-x-7-xx-6-----------|
D|-11-11-11-----11------11-11-11-x-9-xx-9-----------|
A|--0--0--0--------------0--0--0-x-0-xx-0-----------|
E|--------------------------------------------------|

And thats the whole First Contact video for you.
Enjoy! Please leave comments or ratings!!!
Tap to rate this tab
 
# A B C D E F G H I J K L M N O P Q R S T U V W X Y Z