Song name
# A B C D E F G H I J K L M N O P Q R S T U V W X Y Z

Angels And Airwaves - Do This For Me Now tab

---------------------------------------------------------------------------------
Angels and airwaves - Do It For Me Now

Name - Nick
E-mail-Rolough691@aol.com

Another great song on the Album. For those of you wondering if these songs are real they
The album leaked a week or so ago but the links on the blink fan site were blocked
have to have somebody e-mail the songs to you. For those of you who do have the album, 
Do It For Me Now =). Check out my tab for The War (tab 2).

Intro (Morse Code) repeats just about the whole song.
e|----------------------------------------|
B|----------------------------------------|
G|----------------------------------------|
D|--7-7-7-7-7--7-7--7-7--7----------------|
A|----------------------------------------|
E|----------------------------------------|

Then the guitar comes in.
Now Toms been using this sort of effect most of the album.
I've figured it out to be a delay.
Also use a wah pedal n slowly move it all the way back and forth
while tremelo palm mute picking the notes. Add some rhythm.

e|----------------------------------------|
B|----------------------------------------|
G|----------------------------------------|
D|--11-11-11-11-11-11-11-11-9-9-11-7------| Tremelo pick them at the beats
A|----------------------------------------| i have counted for. Listen to the
E|----------------------------------------| song you can tell.


Verse (just the morse code beat)
e|----------------------------------------|
B|----------------------------------------|
G|----------------------------------------|
D|-7-7-7-7-7--7-7--7-7--7-----------------|
A|----------------------------------------|
E|----------------------------------------|

then guitar comes in
"where the guy grabs the girl and gives her his hand"
e|----------------------------------------|
B|----------------------------------------|
G|----------------------------------------|
D|--11-11-11-11-11-11-11-11-9-9-11-7------|
A|----------------------------------------|
E|----------------------------------------|


Chorus
"and i dont know"
Guitar
e|----------------------------------------|
B|----------------------------------------|
G|----------------------------------------|
D|-7~---7-7-7-7---------------------------|
A|-7~---7-7-7-7---------------------------|
E|-5~---5-5-5-5---------------------------|

e|----------------------------------------|
B|----------------------------------------|
G|-9~---9-9-9-9---------------------------|
D|-7~---7-7-7-7---------------------------|
A|-5~---5-5-5-5---------------------------|
E|----------------------------------------|

Synthesizer - Keyboards
e|--17~----------14---19---17~------------|
B|-------15--17---------------------------|
G|--14~----------11---16---14~------------|
D|-------12--14---------------------------|
A|----------------------------------------|
E|----------------------------------------|

Back to intro with morse code and guitar

Verse 2

Chorus

Bridge

"Now just hold on, hold on to me"

Synthesizer - Keyboards
e|--9---7-9----7-9----7-9---------10-------10--------9-------9---------|
B|---10-----10-----10-----10--x4-----10-10-----10-10---10-10----10-10--|
G|---------------------------------------------------------------------|
D|---------------------------------------------------------------------|
A|---------------------------------------------------------------------|
E|---------------------------------------------------------------------|

Guitar
e|----------------------------------------|
B|----------------------------------------|
G|----------------------------------------|
D|--11-11-11-11-11-11-11-11-9-9-11-7------|
A|----------------------------------------|
E|----------------------------------------|

Keeps doing it just guitar and then ends on
e|-----------------------------------------|
B|-----------------------------------------|
G|---6~------------------------------------|
D|---7~------------------------------------|
A|---7~------------------------------------|
E|---5~------------------------------------|

Well thats all
Thanks again hopefully i can figure out the xylophone on Start The Machine
then ill get right to that tab. Enjoy!
Tap to rate this tab
# A B C D E F G H I J K L M N O P Q R S T U V W X Y Z