Guitaretab - guitar tabs
Song name
# A B C D E F G H I J K L M N O P Q R S T U V W X Y Z

Angels And Airwaves - Distraction tab

e  ----12-12-12-12-----10-10-10-10-----12-12-12-12-----10-10-10-10-----------|x7
b  --------------------------------------------------------------------------|
g  --------------------------------------------------------------------------|
d  --------------------------------------------------------------------------|
a  --------------------------------------------------------------------------|
e  --------------------------------------------------------------------------|

e  --------------------------------------------------------------------------|
b  --------------------------------------------------------------------------|
g  ----9-9-9-9-9-9---57-7-7-7-7-7-75--9--5-5-5-5-5-5-57-7-7-7-7-7-7-7-----|x2
d  --------------------------------------------------------------------------|
a  --------------------------------------------------------------------------|
e  --------------------------------------------------------------------------|

e  --------------------------------------------------------------------------|
b  --------------------------------------------------------------------------|
g  ------9-9-9-97-7-7-79-9-9-97-7-7-79-9-9-97-7-7-79-9-9-97-7-7-7-----| x2
d  --------------------------------------------------------------------------|
a  --------------------------------------------------------------------------|
e  --------------------------------------------------------------------------|

e  --------------------------------------------------------------------------|
b  --------------------------------------------------------------------------|
g  ----9-9-9-9-9-9---57-7-7-7-7-7-75--9--5-5-5-5-5-5-57-7-7-7-7-7-7-7-----|x2
d  --------------------------------------------------------------------------|
a  --------------------------------------------------------------------------|
e  --------------------------------------------------------------------------|
[ Tab from: http://www.guitaretab.com/a/angels-and-airwaves/71666.html ]
e  --------------------------------------------------------------------------|
b  --------------------------------------------------------------------------|
g  ------9-9-9-97-7-7-79-9-9-97-7-7-79-9-9-97-7-7-79-9-9-97-7-7-7-----| x2
d  --------------------------------------------------------------------------|
a  --------------------------------------------------------------------------|
e  --------------------------------------------------------------------------|

e  --------------------------------------------------------------------------|
b  --------------------------------------------------------------------------|
g  ----9-9-9-9-9-9---57-7-7-7-7-7-75--9--5-5-5-5-5-5-57-7-7-7-7-7-7-7-----|x2
d  --------------------------------------------------------------------------|
a  --------------------------------------------------------------------------|
e  --------------------------------------------------------------------------|

e  --------------------------------------------------------------------------|
b  --------------------------------------------------------------------------|
g  ----9-12-12-129-7--12-12-127-912-12-129-10-12-12-12-12----------------|x2
d  --------------------------------------------------------------------------|
a  --------------------------------------------------------------------------|
e  --------------------------------------------------------------------------|

e  --------------------------------------------------------------------------|
b  --------------------------------------------------------------------------|
g  ----9-9-9-9-9-9---57-7-7-7-7-7-75--9--5-5-5-5-5-5-57-7-7-7-7-7-7-7-----|x4
d  --------------------------------------------------------------------------|
a  --------------------------------------------------------------------------|
e  --------------------------------------------------------------------------|

e  --------------------------------------------------------------------------|
b  --------------------------------------------------------------------------|
g  --------5--------7------5------------5---------7-------5------------------|x2
d  ------------5-------5------------------5----------5-----------------------|
a  --------------------------------------------------------------------------|
e  --------------------------------------------------------------------------|
Related for Distraction tab