Song name
# A B C D E F G H I J K L M N O P Q R S T U V W X Y Z

Angels And Airwaves - Littles Enough tab

-----------------------------------------------------------------------------
	             Little's Enough - Angels & Airwaves            
-----------------------------------------------------------------------------

Tabbed by: Rock God #1 (Leo C)

Tuning: Standard

The intro is some kind of synthesised keyboard? Anyway, after the intro, here is the parts to the verse:

Verse:

e|---------|--------------------------------|
B|---------|--------------------------------|
G|---------|--------------------------------| Play all once, then repeat
D|---------|--------------------------------| the second part (mark by the 
A|---------|--------------------------------| vertical lines)
E|-0-4-5---|---0-4-5------0-4-7------0-7-9--|

Break:

e|-x---------x---------x---------x---------|
B|-x---------x---------x---------x---------|
G|-x-(x 16)--4-(x 16)--x-(x 16)--4-(x 16)--|  x2
D|-4---------4---------7---------4---------|
A|-4---------2---------7---------2---------|
E|-2---------x---------5---------x---------|

Then:

e|-x-|
B|-x-|
G|-x-|
D|-7-|
A|-7-|
E|-5-|

Short Instrumental:

e|-----------------------------------|
B|-----------------------------------|
G|-----------------------------------| x2
D|-----------------------------------|
A|-----------------------------------|
E|-55555555444444442222222244444444--|

Repeat Verse x2 (as before), but without the first bar

Repeat Break x2 (as before)

Chorus:

e|-x---------x---------x---------x--------x--------|
B|-x---------x---------x---------x--------x--------|
G|-x-(x 16)--4-(x 16)--6-(x 16)--4-(x 8)--7-(x 8)--|  x2
D|-7---------4---------6---------4--------7--------|
A|-7---------2---------4---------2--------5--------|
E|-5---------x---------x---------x--------x--------|

Then:

e|-x---------x---------x---------x-|
B|-x---------x---------x---------x-|
G|-x---------4---------6---------7-|  x2  You'll have to listen to the song 
D|-7---------4---------6---------7-|  and work out the timing for this.
A|-7---------2---------4---------5-|
E|-5---------x---------x---------x-|

Repeat Chorus x4 

End on:

e|-x-|
B|-x-|
G|-x-|
D|-7-|
A|-7-|
E|-5-|

Legend:
x = Mute note
=============================================================================

This tab is dedicated to my mate Tim, who absolutely loves Blink 182, Angels and Airwaves and Plus 44.

\m/

Please rate and comment.
Tap to rate this tab
 
# A B C D E F G H I J K L M N O P Q R S T U V W X Y Z