Song name
# A B C D E F G H I J K L M N O P Q R S T U V W X Y Z

Angels And Airwaves - Do It For Me Now tab

-------------------------------------------------------------------------------
                       Do It For Me Now - Angels & Airwaves
-------------------------------------------------------------------------------
Tabbed by: kevlarmusicmojo


Tuning: Standard

Basically, from what I can hear from the song, there are only two guitar parts and the 
morse code part is synth. So here goes.

Effects: Probably some Chorus, Delay and Reverb. You decide.


Riff 1:

(Play Palm Muted 16th Notes)

e|---------------------------------------------------------------------------|
B|---------------------------------------------------------------------------|
G|---------------------------------------------------------------------------|
D|-11-11-11-11-9-9-11-11-7-7-7-7-7-7-7-7-7-----------------------------------|
A|---------------------------------------------------------------------------|
E|---------------------------------------------------------------------------|
   .  .  .  .  . . .  .  . . . . . . . . .

Riff 2:

e|------------------------------------------------------------------------------|
B|-10~------------12~-----------------------------------------------------------|
G|--------------9---------------------------------------------------------------|
D|--------11-12-----------------------------------------------------------------|
A|------------------------------------------------------------------------------|
E|------------------------------------------------------------------------------|

Play this 4x per chorus


That's really it.  Play Riff 1 in the intro after the drums come in, the verses, and at 
end where, "Just hold on, hold on to me," is repeated.

Play Riff 2 on all of the choruses and you should be good to go.

| /  slide up
| \  slide down
| h  hammer-on
| p  pull-off
| ~  vibrato
| +  harmonic
| x  Mute note
===============================================================================
Tap to rate this tab
 
# A B C D E F G H I J K L M N O P Q R S T U V W X Y Z