Song name
# A B C D E F G H I J K L M N O P Q R S T U V W X Y Z

Angels And Airwaves - Call To Arms My Only Fear tab

        Call To Arms(My Only Fear) - Angels And Airwaves
----------------------------------------------------------------------------------------|
Tabbed by:Blinkerdude182

Tuning:EADGBE

Intro/bridge
E|--5p0-0-0-5p0-0-0-4p0-0-0-4p0-0-0-2p0-0-0-2p0-0-0-0-0-0-0-2p0-0-0--|
B|-------------------------------------------------------------------|
G|-------------------------------------------------------------------|
D|-------------------------------------------------------------------|
A|-------------------------------------------------------------------|
E|-------------------------------------------------------------------|

E|--4-------4--4----------5--5-------5-5------------------------------------------------------------------|
B|----5------------5------------5---------5---------7-7-5------7-7-5--------7-7-5--------7-7-5------------|
G|------4------------4-------------4---------4------------4-----------4------------4------------4---------|
D|--------------------------------------------------------------------------------------------------------|
A|--------------------------------------------------------------------------------------------------------|
E|--------------------------------------------------------------------------------------------------------|


Verse

e|--------------------------------------------------------------------|
B|-5555555555555555---77777777--44444444------------------------------|
G|-4444444444444444---44444444--44444444------------------------------|
D|--------------------------------------------------------------------|
A|--------------------------------------------------------------------|
E|--------------------------------------------------------------------|

Chorus/outro
e|-7--7--7--7--7----5--5--5--5--5----4--4--4--4--4----5--5--5--5--5---|
B|--5--5--5--5--5-5--5--5--5--5--5-5--5--5--5--5--5-5--5--5--5--5--5-5|
G|----4--4--4--4--4----4--4--4--4--4----4--4--4--4--4---4--4--4--4--4-|
D|--------------------------------------------------------------------|
A|--------------------------------------------------------------------|
E|--------------------------------------------------------------------|

Pre Verse (second verse only)
Delay                  PM………………………………………………………………………………………………………………………
e|------------------|-------------------------------------------------|
B|------------------|-------------------------------------------------|
G|------------------|-------------------------------------------2x----|
D|-22--2-----22--2--|----22--22--22------22--22--22-------------------|
A|-22--2-----22--2--|----22--22--22------22--22--22-------------------|
E|-00--0-----00--0--|-------------------------------------------------|


AVA is amazing. enjoy
Tap to rate this tab
 
# A B C D E F G H I J K L M N O P Q R S T U V W X Y Z