Song name
# A B C D E F G H I J K L M N O P Q R S T U V W X Y Z

Angels Fall - Drunk Enough tab

Artist: Angels Fall
Song: Drunk Enough
Tuning: Drop C#

https://www.facebook.com/angelsfallmusic

I'm sure this isn't 100%, but it sounds pretty close to me.

d#|----------------------------------------------|
A#|-------------3-----------------------3--------|
F#|-------0--------0--------------0--------0-----|
C#|----4-----4--------4--------4-----4--------4--|
G#|-2--------------------2-----------------------|
C#|-------------------------0--------------------|

d#|----------------------------------------------|
A#|---------------3--------------------3---------|
F#|---------0--------0--------0-----------0------|
C#|------4-----4--------4--------4-----------4---|
G#|----------------------------------------------|
C#|0--2--------------------2--------2------------|

I couldn't tell you I'm sorry
I couldn't get the words out right
I had every chance to keep you by my side
Now I'm empty, like this bottle
Like this house is going to be

d#|------------------------------------------------|
A#|------------------------------------------------|
F#|-------------0-----------------------0----------|
C#|-------7--------7--------------9--------9-------|
G#|----5-----5--------5--------7-----7--------7----|
C#|-5--------------------5--7--------------------7-|

d#|------------------------------------------------|
A#|------------------------------------------------|
F#|-------------0--------------------0-------------|
C#|-------4--------4--------4-----------4----------|
G#|----2-----2--------2--------2-----------2-------|
C#|-2--------------------2--------2----------------|

Packing your suitcase, Now I can see, what's right in front of me

Chorus:
d#|-2--0--0--0--|
A#|-2--3--0--0--|
F#|-4--2--0--0--|
C#|-4--0--2--5--|
G#|-2--0--2--5--|
C#|-X--0--2--5--|

And I'm just drunk enough to tell you
Exactly what I needed to say
I'm just drunk enough to tell you
I need you please stay
'cause I'm sober enough to know maybe
It's a little too late
'cause I'm sober enough to see you
Walking away (walking away)

d#|----------------------------------|
A#|----------------------------------|
F#|-------7--------------------------|
C#|-2-5-7-7--------------------------|
G#|-2-5-5-7--------------------------|
C#|-2-5---7--------------------------|

Now I'm sorry I never meant to
Treat you this way
Your so beautiful and I wasted every chance you gave me
If I could it all back,
You know I would
But I guess I'm too late.
Now I'm empty like this bottle
Like this house is going to be.


Lyrics:
I couldn't tell you I'm sorry
I couldn't get the words out right
I had every chance to keep you by my side
Now I'm empty, like this bottle
Like this house is going to be..
Packing your suitcase
Now I can see, what's right in front of me.

And I'm just drunk enough to tell you
Exactly what I needed to say
I'm just drunk enough to tell you
I need you please stay
'cause I'm sober enough to know maybe
It's a little too late
'cause I'm sober enough to see you
Walking away (walking away)

I had a moment of weakness
I hope that you can somehow find
Some forgiveness inside of you in time
I should of held you .. closer
I should of been there .. more
I was stupid I regret it
'cause now your walking out the door.

And I'm just drunk enough to tell you
Exactly what I needed to say
And I'm just drunk enough to tell you
I need you please stay
'cause I'm sober enough to know maybe
It's a little too late
'cause I'm sober enough to see you
Walking away (walking away)

Now I'm sorry I never meant to
Treat you this way
Your so beautiful and I wasted every chance you gave me
If I could it all back,
You know I would
But I guess I'm too late.
Now I'm empty like this bottle
Like this house is going to be.

And I'm just drunk enough to tell you
Exactly what I needed to say
I'm just drunk enough to tell you
I need you please stay
'cause I'm sober enough to know maybe
It's a little too late
'cause I'm sober enough to see you
Walking away (walking away)
Tap to rate this tab
# A B C D E F G H I J K L M N O P Q R S T U V W X Y Z