Angels Of Light - On The Mountain chords

Highlighted       Show chord diagrams
-------------------------------------------------------------------------------
			     On the Mountain - Angels of Light
-------------------------------------------------------------------------------

Official Website: http://younggodrecords.com/Artists/?C=15

Tabbed by:CDemmings
Email:cdemmings@hotmail.com

Tuning: Standard

Chords: C, F, G
e|------0--1--3--------------------------------------------------------------|
B|------1--1--3--------------------------------------------------------------|
G|------0--2--0--------------------------------------------------------------|
D|------2--3--0--------------------------------------------------------------|
A|------3--3--2--------------------------------------------------------------|
E|------3--1--3--------------------------------------------------------------|


Verse:

C                 F
Let the wind wear away
C               F
Words cut into stone
C                  F
Let it clear what remains
C                    F
Let it scatter their bones

Chorus:

G        F
Deep and loud
G         F
Clear and true
          C
Let it be you
Tap to rate this tab
 
# A B C D E F G H I J K L M N O P Q R S T U V W X Y Z