Song name
# A B C D E F G H I J K L M N O P Q R S T U V W X Y Z

Angels - Backstreet Pickup tab

[Riff 1]
------------------------------------------------------------------------------|
------------------------------------------------------------------------------|
-9b11-9b11-9b11-9b11-9b11-9b11-9b11-11-11-11-11-11-11-11-11-11-11-11-11-11----|
------------------------------------------------------------------------------|
------------------------------------------------------------------------------|
------------------------------------------------------------------------------|


------------------------------------------------------------------------------|
------------------------------------------------------------------------------|
-11-11-11-9b11r9-7----------7---------7--9b11-9-7-----------------------------|
-------------------9------7---9-----------------------7-----------------------|
----------------------7h9-------------------------7h9-------------------------|
--------------------------------------------------------10-7------------------|


[Riff 2]
------------------------------------------------------------------------------|
------------------------------------------------------------------------------|
------------------------------------------------------------------------------|
------------------------------------------------------------------------------|
----------7h9-9-12-11-7h9-9---9---------------------7h9-9-12-11-7h9-9---9-----|
----------7---7-7--7--7---7---7---------------------7---7-7--7--7---7---7-----|
 Welcome back,                    Good to see you again

------------------------------------------------------------------------------|
------------------------------------------------------------------------------|
------------------------------------------------------------------------------|
------------------------------------------------------------------------------|
--------------2--2--5--4--2--2---2-------------------7h9-9-12-11-7h9-9---9----|
--------------0--0--0--0--0--0---0-------------------7---7-7--7--7---7---7----|
 Heart attack                     Never thought I'd care

[Riff 3]
------------------------------------------------------------------------------|
------------------------------------------------------------------------------|
------------------------------------------------------------------------------|
-5----------------------------------------------------------------------------|
-3----------------------------------------------------------------------------|
------------------------------------------------------------------------------|
 Queen of the night you gotta heart of stone,

-2----------------------2-----2-----2----2------------------------------------|
-3----------------------3-----3-----3----3------------------------------------|
-2----------------------2-----2-----2----2------------------------------------|
-0----------------------0-----0-----0----0------------------------------------|
-0----------------------4-----0-----4----0------------------------------------|
------------------------------------------------------------------------------|
 Now that you're back I can't leave you alone

[Chorus]
------------------------------------------------------------------------------|
------------------------------------------------------------------------------|
-9----9------7---9v---7h9--9--7v----9----9-----7---9v---7h9--9--7v------------|
------------------------------------------------------------------------------|
------------------------------------------------------------------------------|
------------------------------------------------------------------------------|
 Back street pickup                 Back street pickup

------------------------------------------------------------------------------|
----------------------2-------------------------------------------------------|
----------------------2-------------------------------------------------------|
-7--------------------2-------------------------------------------------------|
-5----------------------------------------------------------------------------|
------------------------------------------------------------------------------|
 Honey where have you been, good to see you again

[Riff 2]Saw you're face, in a magazine
        Silk and lace, honey you're obscene
        You hooked me in, then you raised the price
        Some call it sin, I call it paradise

[Riff 3]Queen of the night you gotta heart of stone
        Now that you're back I can't leave you alone

[Chorus]
Backstreet pickup
Backstreet pickup
Honey where have you been?
Good to see you again

[solo]


Play three times
------------------------------------------------------------------------------|
------------------------------------------------------------------------------|
--9b11-9b11-9b11-9b11-9b11-9b11-9b11r9p7-9b11---------------------------------|
------------------------------------------------------------------------------|
------------------------------------------------------------------------------|
------------------------------------------------------------------------------|

[Riff 1] x 2
Tap to rate this tab
# A B C D E F G H I J K L M N O P Q R S T U V W X Y Z