Song name
# A B C D E F G H I J K L M N O P Q R S T U V W X Y Z

Angels - Am I Ever Gonna See Your Face Again tab

Artist: The Angels
Title: Am I Ever Gonna See Your Face Again?
Album: Albert (1977)


Intro:
Gtr. 1
|------------12-14-|---16----12-------|---16---12--------|
|-----12-14--------|---------------12-|------------12----|
|------------------|------------------|------------------|
|------------------|------------------|------------------|
|------------------|------------------|------------------|
|------------------|------------------|------------------|
|
|
|Gtr. 2
|------------------|------------------|------------------|
|------------------|------------------|------------------|
|------------------|-2~~~~~~~~~~~~~~~~|~~~~~~~~~~~~~~~~~~|
|------------------|-2~~~~~~~~~~~~~~~~|~~~~~~~~~~~~~~~~~~|
|------------------|-0~~~~~~~~~~~~~~~~|~~~~~~~~~~~~~~~~~~|
|------------------|------------------|------------------|



Gtr. 1
|--16---12---------|---16----12-------|---16---12--------|
|------------12----|---------------12-|------------12----|
|------------------|------------------|------------------|
|------------------|------------------|------------------|
|------------------|------------------|------------------|
|------------------|------------------|------------------|
|
|
|Gtr. 2
|------------------|------------------|------------------|
|------------------|------------------|------------------|
|------------------|------------------|---2~~~~~~~~~~~~~~|
|--2~~~~~~~~~~~~~~~|~~~~~~~~~~~~~~~~~~|---2~~~~~~~~~~~~~~|
|--2~~~~~~~~~~~~~~~|~~~~~~~~~~~~~~~~~~|---0~~~~~~~~~~~~~~|
|--0~~~~~~~~~~~~~~~|~~~~~~~~~~~~~~~~~~|------------------|




Gtr. 1
|--16---12---------|---12~~~~~~~~~~~~|-----------------|
|------------12----|-----------------|-----------------|
|------------------|-----------------|-----------------|
|------------------|-----------------|-----------------|
|------------------|-----------------|-----------------|
|------------------|-----------------|-----------------|
|
|
|Gtr. 2
|------------------|-----------------|-----------------|
|------------------|-----------------|-----------------|
|~~~~~~~~~~~~~~~~~~|-----------------|-----------------|
|~~~~~~~~~~~~~~~~~~|-----------------|-----------------|
|~~~~~~~~~~~~~~~~~~|---2-4-2-2-2-4-2-|-2-2-4-2-2-2-4-2-|
|------------------|---0-0-0-0-0-0-0-|-0-0-0-0-0-0-0-0-|


Verse:
|-----------------|-----------------|-------------------|
|-----------------|-----------------|-------------------|
|-----------------|-----------------|-------------------|
|-----------------|-----------------|-------------------|
|-2-2-4-2-2-2-4-2-|-2-2-4-2-2-2-4-2-|-2-2-4-2-2-2-4-2---|
|-0-0-0-0-0-0-0-0-|-0-0-0-0-0-0-0-0-|-0-0-0-0-0-0-0-0---|

|-----------------|-----------------|-------------------|
|-----------------|-----------------|-------------------|
|-----------------|-----------------|-------------------|
|-----------------|-----------------|-------------------|
|-2-2-4-2-2-2-4-2-|-2-2-4-2-2-2-4-2-|-2-2-4-2-2-2-4-2---|
|-0-0-0-0-0-0-0-0-|-0-0-0-0-0-0-0-0-|-0-0-0-0-0-0-0-0---|

|-----------------|-----------------|
|-----------------|-----------------|
|-----------------|-----------------|
|-----------------|-----------------|
|-2-2-4-2-2-2-4-2-|-2-2-4-2-2-2-4-2-|
|-0-0-0-0-0-0-0-0-|-0-0-0-0-0-0-0-0-|


Chorus:
|-----------------|-----------------|-------------------|
|-----------------|-----------------|-------------------|
|-----------------|-----------------|-------------------|
|-2-2-4-2-2-2-4-2-|-2-2-4-2-2-2-4-2-|-------------------|
|-0-0-0-0-0-0-0-0-|-0-0-0-0-0-0-0-0-|-2-2-4-2-2-2-4-2---|
|-----------------|-----------------|-0-0-0-0-0-0-0-0---|

|-----------------|-----------------|-------------------|
|-----------------|-----------------|-------------------|
|-----------------|-----------------|-------------------|
|-----------------|-2-2-4-2-2-2-4-2-|-2-2-4-2-2-2-4-2---|
|-2-2-4-2-2-2-4-2-|-0-0-0-0-0-0-0-0-|-0-0-0-0-0-0-0-0---|
|-0-0-0-0-0-0-0-0-|-----------------|-------------------|

|-----------------|-----------------|
|-----------------|-----------------|
|-----------------|-----------------|
|-----------------|-----------------|
|-2-2-4-2-2-2-4-2-|-2-2-4-2-2-2-4-2-|
|-0-0-0-0-0-0-0-0-|-0-0-0-0-0-0-0-0-|


Verse:
|-----------------|-----------------|-------------------|
|-----------------|-----------------|-------------------|
|-----------------|-----------------|-------------------|
|-----------------|-----------------|-------------------|
|-2-2-4-2-2-2-4-2-|-2-2-4-2-2-2-4-2-|-2-2-4-2-2-2-4-2---|
|-0-0-0-0-0-0-0-0-|-0-0-0-0-0-0-0-0-|-0-0-0-0-0-0-0-0---|

|-----------------|-----------------|-------------------|
|-----------------|-----------------|-------------------|
|-----------------|-----------------|-------------------|
|-----------------|-----------------|-------------------|
|-2-2-4-2-2-2-4-2-|-2-2-4-2-2-2-4-2-|-2-2-4-2-2-2-4-2---|
|-0-0-0-0-0-0-0-0-|-0-0-0-0-0-0-0-0-|-0-0-0-0-0-0-0-0---|

|-----------------|-----------------|
|-----------------|-----------------|
|-----------------|-----------------|
|-----------------|-----------------|
|-2-2-4-2-2-2-4-2-|-2-2-4-2-2-2-4-2-|
|-0-0-0-0-0-0-0-0-|-0-0-0-0-0-0-0-0-|


Chorus:
|-----------------|-----------------|-------------------|
|-----------------|-----------------|-------------------|
|-----------------|-----------------|-------------------|
|-2-2-4-2-2-2-4-2-|-2-2-4-2-2-2-4-2-|-------------------|
|-0-0-0-0-0-0-0-0-|-0-0-0-0-0-0-0-0-|-2-2-4-2-2-2-4-2---|
|-----------------|-----------------|-0-0-0-0-0-0-0-0---|

|-----------------|-----------------|-------------------|
|-----------------|-----------------|-------------------|
|-----------------|-----------------|-------------------|
|-----------------|-2-2-4-2-2-2-4-2-|-2-2-4-2-2-2-4-2---|
|-2-2-4-2-2-2-4-2-|-0-0-0-0-0-0-0-0-|-0-0-0-0-0-0-0-0---|
|-0-0-0-0-0-0-0-0-|-----------------|-------------------|

|-----------------|-----------------|
|-----------------|-----------------|
|-----------------|-----------------|
|-----------------|-----------------|
|-2-2-4-2-2-2-4-2-|-2-2-4-2-2-2-4-2-|
|-0-0-0-0-0-0-0-0-|-0-0-0-0-0-0-0-0-|


Bridge:
-----------------|-----------------|-----------------|-----------------|
-----------------|-----------------|-----------------|-----------------|
-4-4-4-4-4-4-4-4-|-4-4-4-4-4-4-4-4-|-2---2---2---2---|-----------------|
-4-4-4-4-4-4-4-4-|-4-4-4-4-4-4-4-4-|-2---2---2---2---|-2---2---2---2---|
-2-2-2-2-2-2-2-2-|-2-2-2-2-2-2-2-2-|-0---0---0---0---|-2---2---2---2---|
-----------------|-----------------|-----------------|-0---0---0---0---|

-----------------|-----------------|-----------------|-----------------|
-----------------|-----------------|-----------------|-----------------|
-4-4-4-4-4-4-4-4-|-4-4-4-4-4-4-4-4-|-2---2---2---2---|-2---2---2---2---|
-4-4-4-4-4-4-4-4-|-4-4-4-4-4-4-4-4-|-2---2---2---2---|-2---2---2---2---|
-2-2-2-2-2-2-2-2-|-2-2-2-2-2-2-2-2-|-0---0---0---0---|-0---0---0---0---|
-----------------|-----------------|-----------------|-----------------|


Chorus:
|-----------------|-----------------|-------------------|
|-----------------|-----------------|-------------------|
|-----------------|-----------------|-------------------|
|-2-2-4-2-2-2-4-2-|-2-2-4-2-2-2-4-2-|-------------------|
|-0-0-0-0-0-0-0-0-|-0-0-0-0-0-0-0-0-|-2-2-4-2-2-2-4-2---|
|-----------------|-----------------|-0-0-0-0-0-0-0-0---|

|-----------------|-----------------|-------------------|
|-----------------|-----------------|-------------------|
|-----------------|-----------------|-------------------|
|-----------------|-2-2-4-2-2-2-4-2-|-2-2-4-2-2-2-4-2---|
|-2-2-4-2-2-2-4-2-|-0-0-0-0-0-0-0-0-|-0-0-0-0-0-0-0-0---|
|-0-0-0-0-0-0-0-0-|-----------------|-------------------|

|-----------------|-----------------|
|-----------------|-----------------|
|-----------------|-----------------|
|-----------------|-----------------|
|-2-2-4-2-2-2-4-2-|-2-2-4-2-2-2-4-2-|
|-0-0-0-0-0-0-0-0-|-0-0-0-0-0-0-0-0-|


Verse:
|-----------------|-----------------|-------------------|
|-----------------|-----------------|-------------------|
|-----------------|-----------------|-------------------|
|-----------------|-----------------|-------------------|
|-2-2-4-2-2-2-4-2-|-2-2-4-2-2-2-4-2-|-2-2-4-2-2-2-4-2---|
|-0-0-0-0-0-0-0-0-|-0-0-0-0-0-0-0-0-|-0-0-0-0-0-0-0-0---|

|-----------------|-----------------|-------------------|
|-----------------|-----------------|-------------------|
|-----------------|-----------------|-------------------|
|-----------------|-----------------|-------------------|
|-2-2-4-2-2-2-4-2-|-2-2-4-2-2-2-4-2-|-2-2-4-2-2-2-4-2---|
|-0-0-0-0-0-0-0-0-|-0-0-0-0-0-0-0-0-|-0-0-0-0-0-0-0-0---|

|-----------------|-----------------|
|-----------------|-----------------|
|-----------------|-----------------|
|-----------------|-----------------|
|-2-2-4-2-2-2-4-2-|-2-2-4-2-2-2-4-2-|
|-0-0-0-0-0-0-0-0-|-0-0-0-0-0-0-0-0-|


Chorus:
|-----------------|-----------------|-------------------|
|-----------------|-----------------|-------------------|
|-----------------|-----------------|-------------------|
|-2-2-4-2-2-2-4-2-|-2-2-4-2-2-2-4-2-|-------------------|
|-0-0-0-0-0-0-0-0-|-0-0-0-0-0-0-0-0-|-2-2-4-2-2-2-4-2---|
|-----------------|-----------------|-0-0-0-0-0-0-0-0---|

|-----------------|-----------------|-------------------|
|-----------------|-----------------|-------------------|
|-----------------|-----------------|-------------------|
|-----------------|-2-2-4-2-2-2-4-2-|-2-2-4-2-2-2-4-2---|
|-2-2-4-2-2-2-4-2-|-0-0-0-0-0-0-0-0-|-0-0-0-0-0-0-0-0---|
|-0-0-0-0-0-0-0-0-|-----------------|-------------------|

|-----------------|-----------------|
|-----------------|-----------------|
|-----------------|-----------------|
|-----------------|-----------------|
|-2-2-4-2-2-2-4-2-|-2-2-4-2-2-2-4-2-|
|-0-0-0-0-0-0-0-0-|-0-0-0-0-0-0-0-0-|


Intro again:
Gtr. 1
|------------12-14-|---16----12-------|---16---12--------|
|-----12-14--------|---------------12-|------------12----|
|------------------|------------------|------------------|
|------------------|------------------|------------------|
|------------------|------------------|------------------|
|------------------|------------------|------------------|
|
|
|Gtr. 2
|------------------|------------------|------------------|
|------------------|------------------|------------------|
|------------------|-2~~~~~~~~~~~~~~~~|~~~~~~~~~~~~~~~~~~|
|------------------|-2~~~~~~~~~~~~~~~~|~~~~~~~~~~~~~~~~~~|
|------------------|-0~~~~~~~~~~~~~~~~|~~~~~~~~~~~~~~~~~~|
|------------------|------------------|------------------|



Gtr. 1
|--16---12---------|---16----12-------|---16---12--------|
|------------12----|---------------12-|------------12----|
|------------------|------------------|------------------|
|------------------|------------------|------------------|
|------------------|------------------|------------------|
|------------------|------------------|------------------|
|
|
|Gtr. 2
|------------------|------------------|------------------|
|------------------|------------------|------------------|
|------------------|------------------|---2~~~~~~~~~~~~~~|
|--2~~~~~~~~~~~~~~~|~~~~~~~~~~~~~~~~~~|---2~~~~~~~~~~~~~~|
|--2~~~~~~~~~~~~~~~|~~~~~~~~~~~~~~~~~~|---0~~~~~~~~~~~~~~|
|--0~~~~~~~~~~~~~~~|~~~~~~~~~~~~~~~~~~|------------------|



Gtr. 1
|--16---12---------|\
|------------12----| \
|------------------|  \
|------------------|   \
|------------------|    \
|------------------|     \Straight into bridge
|
|
|Gtr. 2
|------------------|     /Straight into bridge
|------------------|    /
|~~~~~~~~~~~~~~~~~~|   /
|~~~~~~~~~~~~~~~~~~|  /
|~~~~~~~~~~~~~~~~~~| /
|------------------|/


Bridge:
-----------------|-----------------|-----------------|-----------------|
-----------------|-----------------|-----------------|-----------------|
-4-4-4-4-4-4-4-4-|-4-4-4-4-4-4-4-4-|-2---2---2---2---|-----------------|
-4-4-4-4-4-4-4-4-|-4-4-4-4-4-4-4-4-|-2---2---2---2---|-2---2---2---2---|
-2-2-2-2-2-2-2-2-|-2-2-2-2-2-2-2-2-|-0---0---0---0---|-2---2---2---2---|
-----------------|-----------------|-----------------|-0---0---0---0---|

-----------------|-----------------|-----------------|-----------------|
-----------------|-----------------|-----------------|-----------------|
-4-4-4-4-4-4-4-4-|-4-4-4-4-4-4-4-4-|-2---2---2---2---|-2---2---2---2---|
-4-4-4-4-4-4-4-4-|-4-4-4-4-4-4-4-4-|-2---2---2---2---|-2---2---2---2---|
-2-2-2-2-2-2-2-2-|-2-2-2-2-2-2-2-2-|-0---0---0---0---|-0---0---0---0---|
-----------------|-----------------|-----------------|-----------------|


Chorus:
|-----------------|-----------------|-------------------|
|-----------------|-----------------|-------------------|
|-----------------|-----------------|-------------------|
|-2-2-4-2-2-2-4-2-|-2-2-4-2-2-2-4-2-|-------------------|
|-0-0-0-0-0-0-0-0-|-0-0-0-0-0-0-0-0-|-2-2-4-2-2-2-4-2---|
|-----------------|-----------------|-0-0-0-0-0-0-0-0---|

|-----------------|-----------------|-------------------|
|-----------------|-----------------|-------------------|
|-----------------|-----------------|-------------------|
|-----------------|-2-2-4-2-2-2-4-2-|-2-2-4-2-2-2-4-2---|
|-2-2-4-2-2-2-4-2-|-0-0-0-0-0-0-0-0-|-0-0-0-0-0-0-0-0---|
|-0-0-0-0-0-0-0-0-|-----------------|-------------------|

|-----------------|-----------------|
|-----------------|-----------------|
|-----------------|-----------------|
|-----------------|-----------------|
|-2-2-4-2-2-2-4-2-|-2-2-4-2-2-2-4-2-|
|-0-0-0-0-0-0-0-0-|-0-0-0-0-0-0-0-0-|


Intro: 2:19

Gtr. 1
|------------12-14-|---16----12-------|---16---12--------|
|-----12-14--------|---------------12-|------------12----|
|------------------|------------------|------------------|
|------------------|------------------|------------------|
|------------------|------------------|------------------|
|------------------|------------------|------------------|
|
|
|Gtr. 2
|------------------|------------------|------------------|
|------------------|------------------|------------------|
|------------------|-2~~~~~~~~~~~~~~~~|~~~~~~~~~~~~~~~~~~|
|------------------|-2~~~~~~~~~~~~~~~~|~~~~~~~~~~~~~~~~~~|
|------------------|-0~~~~~~~~~~~~~~~~|~~~~~~~~~~~~~~~~~~|
|------------------|------------------|------------------|




Gtr. 1
|--16---12---------|---16----12-------|---16---12--------|
|------------12----|---------------12-|------------12----|
|------------------|------------------|------------------|
|------------------|------------------|------------------|
|------------------|------------------|------------------|
|------------------|------------------|------------------|
|
|
|Gtr. 2
|------------------|------------------|------------------|
|------------------|------------------|------------------|
|------------------|------------------|---2~~~~~~~~~~~~~~|
|--2~~~~~~~~~~~~~~~|~~~~~~~~~~~~~~~~~~|---2~~~~~~~~~~~~~~|
|--2~~~~~~~~~~~~~~~|~~~~~~~~~~~~~~~~~~|---0~~~~~~~~~~~~~~|
|--0~~~~~~~~~~~~~~~|~~~~~~~~~~~~~~~~~~|------------------|




Gtr. 1
|--16---12---------|---16----12-------|---16---12--------|
|------------12----|---------------12-|------------12----|
|------------------|------------------|------------------|
|------------------|------------------|------------------|
|------------------|------------------|------------------|
|------------------|------------------|------------------|
|
|
|Gtr. 2
|------------------|------------------|------------------|
|------------------|------------------|------------------|
|~~~~~~~~~~~~~~~~~~|------------------|------------------|
|~~~~~~~~~~~~~~~~~~|-2~~~~~~~~~~~~~~~~|~~~~~~~~~~~~~~~~~~|
|~~~~~~~~~~~~~~~~~~|-2~~~~~~~~~~~~~~~~|~~~~~~~~~~~~~~~~~~|
|------------------|-0~~~~~~~~~~~~~~~~|~~~~~~~~~~~~~~~~~~|

Gtr. 1
|--16---12---------|---16----12-------|---16---12--------|
|------------12----|---------------12-|------------12----|
|------------------|------------------|------------------|
|------------------|------------------|------------------|
|------------------|------------------|------------------|
|------------------|------------------|------------------|
|
|
|Gtr. 2
|------------------|------------------|------------------|
|------------------|------------------|------------------|
|------------------|------------------|---2~~~~~~~~~~~~~~|
|--2~~~~~~~~~~~~~~~|~~~~~~~~~~~~~~~~~~|---2~~~~~~~~~~~~~~|
|--2~~~~~~~~~~~~~~~|~~~~~~~~~~~~~~~~~~|---0~~~~~~~~~~~~~~|
|--0~~~~~~~~~~~~~~~|~~~~~~~~~~~~~~~~~~|------------------|




Gtr. 1
|--16---12---------|---16----12-------|---16---12--------|
|------------12----|---------------12-|------------12----|
|------------------|------------------|------------------|
|------------------|------------------|------------------|
|------------------|------------------|------------------|
|------------------|------------------|------------------|
|
|
|Gtr. 2
|------------------|------------------|------------------|
|------------------|------------------|------------------|
|~~~~~~~~~~~~~~~~~~|------------------|------------------|
|~~~~~~~~~~~~~~~~~~|-2~~~~~~~~~~~~~~~~|~~~~~~~~~~~~~~~~~~|
|~~~~~~~~~~~~~~~~~~|-2~~~~~~~~~~~~~~~~|~~~~~~~~~~~~~~~~~~|
|------------------|-0~~~~~~~~~~~~~~~~|~~~~~~~~~~~~~~~~~~|

From here Guitar 1 continues playing the Intro Riff and Guitar 2 plays the Chorus until fade



If you got lost in all that here is the order:
Intro
Verse
Chorus
Verse
Chorus
Bridge
Chorus
Verse
Chorus
Intro into Bridge
Chorus
Intro (guitar 1 plays til fade)
      (Guitar 2 plays chorus til fade)


“Am I ever gonna see your face again? (No way! Get F*ed F*k Off!)”
Long live The Angels!!
Tap to rate this tab
# A B C D E F G H I J K L M N O P Q R S T U V W X Y Z