Song name
# A B C D E F G H I J K L M N O P Q R S T U V W X Y Z

Angels - No Secrets tab

----------------------------------------------------------------------------
			     No Secrets - The Angels
---------------------------------------------------------------------------
Tabbed by: janc
Email:jacob_cumminz@hotmail.com

Guitar 1: EADGBe
Guitar 2: EADGBe

Guitar 1 and 2
---------------------------------------------------------------------------|
---------------------------------------------------------------------------|
---------------------------------------------------------------------------|
---------------------------------------------------------------------------|
--------------------------2h3-33333333333--3-2-0---------------------------|
--0-0000000--2h3-3333333-------------------------3-------------------------|
PM  *******      *******      ***********

---------------------------------------------------------------------------|
---------------------------------------------------------------------------|
---------------------------------------------------------------------------|
---------------------------------------------------------------------------|
--------------------------2h3-3333333333---7-5-7-8-7-5---------------------|
--0-0000000--2h3-3333333-------------------------------8-------------------|
PM  *******      *******      **********

Verse

guitar 1
---------------------------------------------------------------------------|
---------------------------------------------------------------------------|
---------------------------------------------------------------------------|
---------------------------------------------------------------------------|
--------------------------2h3-33333333333--3-2-0---------------------------|
--0-0000000--2h3-3333333-------------------------3-------------------------|
PM  *******      *******      ***********

guitar 2
---------------------------------------------------------------------------|
---------------------------------------------------------------------------|
---------------------------------------------------------------------------|
---------------------------------------------------------------------------|
--------------------------2h3-3333333333---7-5-7-8-7-5---------------------|
--0-0000000--2h3-3333333-------------------------------8-------------------|
PM  *******      *******      **********

Chorus
guitar 1 and 2 play this
------------------------------------------------|--------------------------|
------------------------------------------------|--------------------------|
------------------------------------------------|--------------------------|
-----------------7--7-7-7--7--5--5-5-5--5--5-5-5|--------------------------|
----5--5-5-5--5--5--5-5-5--5--3--3-3-3--3--3-3-3|--------------------------|
----3--3-3-3--3---------------------------------|--------------------------|

------------------------------------------------2---2----------------------|
------------------------------------------------3----3---------------------|
------------------------------------------------2-----2--------------------|
9--9-9-9--9--7--7-7-7--7--5--5-5--5-5--5-5-5-------------------------------|
7--7-7-7--7--5--5-5-5--5--3--3-3--3-3--3-3-3---------------3--2--0---------|
---------------------------------------------------------------------------|

------------------------------------------------|--------------------------|
------------------------------------------------|--------------------------|
------------------------------------------------|--------------------------|
-----------------7--7-7-7--7--5--5-5-5--5--5-5-5|--------------------------|
----5--5-5-5--5--5--5-5-5--5--3--3-3-3--3--3-3-3|--------------------------|
----3--3-3-3--3---------------------------------|--------------------------|
PM  *  * * *  *  *  * * *  *  *  * * *  *  * * *

| /  slide up
| \  slide down
| h  hammer-on
| p  pull-off
| ~  vibrato
| +  harmonic
| x  Mute note
| PM  Palm Mute
============================================================================
Tap to rate this tab
# A B C D E F G H I J K L M N O P Q R S T U V W X Y Z