Guitaretab - guitar tabs
Song name
# A B C D E F G H I J K L M N O P Q R S T U V W X Y Z

Angels - Take A Long Line tab

-------------------------------------------------------------------------------
			     Take a Long Line - The Angels 
-------------------------------------------------------------------------------
Tabbed by: Clubsport R8
Email: quackattack1234@hotmail.com

This is my first tab and it sounds close.

Tuning: Standard

Intro:
e|-------------------------------|
B|-------------------------------|
G|-------------------------------|x3
D|------7--------7-5-------------|
A|------7--------7-5-------------|
E|------5--------5-3-------------|

then on the fourth time...

e|-----------------------------------|
B|-----------------------------------|
G|-----------------------------------|
D|------7------5-4-3-----------------|
A|------7------------4-3-------------|
E|------5----------------------------|

Verse:

e|-----------------------------------|
B|-----------------------------------|
G|-----------------------------------|
D|---------7-----------7-5-----------|x3
A|---------7-----------7-5-----------|
E|-5-5-5-5---5-5-5-5-5---------------|

then on the fourth time again...

e|-----------------------------------|
B|-----------------------------------|
G|-----------------------------------|
D|---------7-----------7-5-4-3-------|
A|---------7-----------7-------4-3---|
E|-5-5-5-5---5-5-5-5-5---------------|

e|-----------------------------------|
B|-----------------------------------|
G|-----------------------------------|
D|---------7-----------7-5-----------|x3
A|---------7-----------7-5-----------|
E|-5-5-5-5---5-5-5-5-5---------------|

Fourth time do...

e|-----------------------------------|
B|-----------------------------------|
G|-----------------------------------|
D|---------7-----------75-9~---------|
A|---------7-----------75-9~---------|
E|-5-5-5-5---5-5-5-5-5---------------|

e|---------------------------------------------------------|
B|---------------------------------------------------------|
G|---------------------------------------------------------|
D|---------7-----------7-5---------7---------7-6-----------|
A|---------7-----------7-5---------7------------7-6--------|
E|-5-5-5-5---5-5-5-5-5-----5-5-5-5---5-5-5-5---------------|

e|-----------------------------------|
B|-----------------------------------|
G|-----------------------------------|
D|---------7-----------7-5-----------|x2
A|---------7-----------7-5-----------|
E|-5-5-5-5---5-5-5-5-5---------------|

e|-----------------------------------|
B|-----------------------------------|
G|-----------------------------------|
D|---7-7-7-7-----9-9-9-9-------------|x3
A|---7-7-7-7-----9-9-9-9-------------|
E|---5-5-5-5-----7-7-7-7-------------|

e|-----------------------------------|
B|-----------------------------------|
G|-----------------------------------|
D|---------7-----------7-5-----------|x3
A|---------7-----------7-5-----------|
E|-5-5-5-5---5-5-5-5-5---------------|

then on the fourth time again...

e|-----------------------------------|
B|-----------------------------------|
G|-----------------------------------|
D|---------7-----------7-6-----------|
A|---------7---------------7-6-------|
E|-5-5-5-5---5-5-5-5-5---------------|
[ Tab from: http://www.guitaretab.com/a/angels/530.html ]
e|-----------------------------------|
B|-----------------------------------|
G|-----------------------------------|
D|---7-7-7-7-----9-9-9-9-------------|x3
A|---7-7-7-7-----9-9-9-9-------------|
E|---5-5-5-5-----7-7-7-7-------------|

e|-----------------------------------|
B|-----------------------------------|
G|-----------------------------------|
D|-----9-9-9-9-9-9-9-9---------------|
A|-----9-9-9-9-9-9-9-9---------------|
E|-----7-7-7-7-7-7-7-7---------------|

Solo:

e|-----------------------------------------------------------|
B|---14---14-12-10-13---13-12-10-12--12-10-12----------------|
G|---------------------------------------------14-13--12-11--|
D|-----------------------------------------------------------|
A|-----------------------------------------------------------|
E|-----------------------------------------------------------|


e|----------------------------12--12-11--------------------------|
B|---14---14-12-10-13---10-12------------------------------------|
G|---------------------------------------14-13--12-11------------|
D|---------------------------------------------------------------|
A|---------------------------------------------------------------|
E|---------------------------------------------------------------|

e|-----------------------------------|
B|-----------------------------------|
G|-----------------------------------|
D|---------7-----------7-5-----------|x3
A|---------7-----------7-5-----------|
E|-5-5-5-5---5-5-5-5-5---------------|

then on the fourth time again...

e|-----------------------------------|
B|-----------------------------------|
G|-----------------------------------|
D|---------7-----------7-6-----------|
A|---------7---------------7-6-------|
E|-5-5-5-5---5-5-5-5-5---------------|

e|-----------------------------------|
B|-----------------------------------|
G|-----------------------------------|
D|---------7-----------7-5-----------|x3
A|---------7-----------7-5-----------|
E|-5-5-5-5---5-5-5-5-5---------------|

e|-----------------------------------|
B|-----------------------------------|
G|-----------------------------------|
D|---------7-----------75-9----------|
A|---------7-----------75-9----------|
E|-5-5-5-5---5-5-5-5-5---------------|

e|-----------------------------------|
B|-----------------------------------|
G|-----------------------------------|
D|---7-7-7-7-----9-9-9-9-------------|x3
A|---7-7-7-7-----9-9-9-9-------------|
E|---5-5-5-5-----7-7-7-7-------------|

e|-----------------------------------|
B|-----------------------------------|
G|-----------------------------------|
D|-----7-7-7-7-7-7-7-7---------------|
A|-----7-7-7-7-7-7-7-7---------------|
E|-----5-5-5-5-5-5-5-5---------------|

e|-----------------------------------|
B|-----------------------------------|
G|-----------------------------------|
D|---7-7-7-7-----9-9-9-9-------------|x3
A|---7-7-7-7-----9-9-9-9-------------|
E|---5-5-5-5-----7-7-7-7-------------|

e|-----------------------------------|
B|-----------------------------------|
G|-----------------------------------|
D|-----9-9-9-9-9-9-9-9---------------|
A|-----9-9-9-9-9-9-9-9---------------|
E|-----7-7-7-7-7-7-7-7---------------|

e|-----------------------------------|
B|-----------------------------------|
G|-----------------------------------|
D|---7-7-7-7-----9-9-9-9-------------|x3
A|---7-7-7-7-----9-9-9-9-------------|
E|---5-5-5-5-----7-7-7-7-------------|
Related for Take A Long Line tab
Advertisement will be closed in 10 seconds