Song name
# A B C D E F G H I J K L M N O P Q R S T U V W X Y Z

Angra - Heroes Of Sand tab

Artist: Angra
Song: Heroes of Sand
Album: Rebirth

Any questions or concerns contact at joeysardelle828@yahoo.com

8 finger (2handed) Tapping in the Key of Em
-------------------------------------------
         Em                Dmaj7
       L          R       L        R
e ----------------------------------------17---------|
B --------8--------12------------------15------------|
G -----------------------------11---14---------------|
D ------9--------12----------------------------------|
A ----7---------------------12-----------------------|
E --0--------------------10--------------------------|


    Cmaj7                 Dmaj7
     L        R         L          R
e ---------------------------------------------------|
B --------------12--------------------15-------------|
G ------7---------------------11---------------------|
D -----------12----12--------------14----14----------|
A ----9--------------------12------------------------|
E --7-------------------10---------------------------|


     Em                Dmaj7
       L          R       L        R
e ----------------------------------------17---------|
B --------8--------12------------------15------------|
G -----------------------------11---14---------------|
D ------9--------12----------------------------------|
A ----7---------------------12-----------------------|
E --0--------------------10--------------------------|

    Cmaj7                 Dmaj7
     L        R         L          R
e ---------------------------------------------------|
B --------------12--------------------15-------------|
G ------7---------------------11---------------------|
D -----------12----12--------------14----14----------|
A ----9--------------------12------------------------|
E --7-------------------10---------------------------|


     L      R    L     R    L
e ----------12---------12----------------------------|
B ----------10---------10----------------------------|
G --------------------------5------------------------|
D ------5---9----------9-----------------------------|
A ----7------------7----------7----------------------|
E --5------------5--------------5--------------------|


     L      R    L     R    L
e ----------12---------12----------------------------|
B ----------10---------10----------------------------|
G --------------------------5------------------------|
D ------5---9----------9-----------------------------|
A ----7------------7----------7----------------------|
E --5------------5--------------5--------------------|


 L = Left Hand
 R = Right Hand


First Tab!
Please comment and let me know if there are any mistakes or changes that need to be done.
Tap to rate this tab
# A B C D E F G H I J K L M N O P Q R S T U V W X Y Z