Song name
# A B C D E F G H I J K L M N O P Q R S T U V W X Y Z

Angra - Stand Away tab

Band : ANGRA
Song : Stand Away


Tabbed and Created by Ronaldo J. Jappe
E-mail: jappe@azcomnet.com.br



   Em         G            D
|-----------------3--------3p2--------2p0--------------------|
|--------0-----------3----------3----------3-----------------|
|-----0-----0-----------0----------2----------2--------------|
|--------------------------0---------------------------------|
|------------------------------------------------------------|
|--0-----------3---------------------------------------------|

   Bm          D          Em         D/F#
|-----------------2--------------0----0-^--------------------|
|--------3-----------3-----------0----3-)--------------------|
|-----4-----4-----------2-----0-------2(---------------------|
|--------------0----------------------0-)--------------------|
|--2----------------------------------0(---------------------|
|--------------------------0----------2-)--------------------|

   Em         G            D                 (A)
|-----------------3--------5p2--------2p0--------------------|
|--------0-----------3----------3----------------------------|
|-----0-----0-----------0----------2-------------------------|
|--------------------------0---------------------------------|
|---------------------------------------------0~~~-----------|
|--0-----------3---------------------------------------------|

   Bm          D          Em         D/F#
|-----------------2--------------0----0-^--------------------|
|--------3-----------3-----------0----3-)--------------------|
|-----4-----4-----------2-----0-------2(---------------------|
|--------------0----------------------0-)--------------------|
|--2----------------------------------0(---------------------|
|--------------------------0----------2-)--------------------|
Tap to rate this tab
# A B C D E F G H I J K L M N O P Q R S T U V W X Y Z