Song name
# A B C D E F G H I J K L M N O P Q R S T U V W X Y Z

Angry Amputees - She Said tab

SHE SAID
By: The Speaks
Tabbed by: Lead guitarist(even though puro rythm ung tinab ko hehehe. .)of
Silvercore . . ANDREW EVAN R. SARDILLO!!!    \m/!!!!   ROK ON!!

GRRRRR!!!!!!!!!!!


INTRO

distorted
Intro
-|-------------------------------------------------------------------|
-|-------------------------------------------------------------------|
-|---------10-9----------------10--9-12------------------------------|
-|----10-----------10-10--10-----------------------------------------|X4
-|-------------------------------------------------------------------|
-|-------------------------------------------------------------------|


InTro2
lead guitar 

-|-----------------------------------------------------------------------|
-|-----------------------------------------------------------------------|
-|------10-9----------------10--9-12----------10-9-------------10--9-12--|
-|-10-----------10-10--10----------------12---------12-12--12------------|X2
-|-----------------------------------------------------------------------|
-|-----------------------------------------------------------------------|

Rythm Guitar
    F       C       D      C
-|-------------------------------------------------------------------|
-|-------------------------------------------------------------------|
-|----------5-------7------5-----------------------------------------|X2
-|--3-------5-------7------5-----------------------------------------|
-|--3-------3-------5------3-----------------------------------------|
-|--1----------------------------------------------------------------|

then verse


Rythm Guitar
    F       C       Dm      C
-|-------------------------------------------------------------------|
-|-------------------------------------------------------------------|
-|----------5-------7------5-----------------------------------------|X2
-|--3-------5-------7------5-----------------------------------------|
-|--3-------3-------5------3-----------------------------------------|
-|--1----------------------------------------------------------------|

Then intro2 again



InTro2
lead guitar 

-|-----------------------------------------------------------------------|
-|-----------------------------------------------------------------------|
-|------10-9----------------10--9-12----------10-9-------------10--9-12--|
-|-10-----------10-10--10----------------12---------12-12--12------------|X2
-|-----------------------------------------------------------------------|
-|-----------------------------------------------------------------------|

Rythm Guitar
    F       C       D      C
-|-------------------------------------------------------------------|
-|-------------------------------------------------------------------|
-|----------5-------7------5-----------------------------------------|X2
-|--3-------5-------7------5-----------------------------------------|
-|--3-------3-------5------3-----------------------------------------|
-|--1----------------------------------------------------------------|

Then verse2

Rythm Guitar
    F       C       D      C
-|-------------------------------------------------------------------|
-|-------------------------------------------------------------------|
-|----------5-------7------5-----------------------------------------|X2
-|--3-------5-------7------5-----------------------------------------|
-|--3-------3-------5------3-----------------------------------------|
-|--1----------------------------------------------------------------|


Refrain


Rythm Guitar
    Dm      C       Bb      C
-|-------------------------------------------------------------------|
-|-------------------------------------------------------------------|
-|--7-------5-------3------5-----------------------------------------|X2
-|--7-------5-------3------5-----------------------------------------|
-|--5-------3-------1------3-----------------------------------------|
-|-------------------------------------------------------------------|


Chorus   

Rythm Guitar
    F       C       Dm      C
-|-------------------------------------------------------------------|
-|-------------------------------------------------------------------|
-|----------5-------7------5-----------------------------------------|X2
-|--3-------5-------7------5-----------------------------------------|
-|--3-------3-------5------3-----------------------------------------|
-|--1----------------------------------------------------------------|



Bridge

Rythm Guitar (palm muted i2)
    F       C       Dm      C
-|-------------------------------------------------------------------|
-|-------------------------------------------------------------------|
-|----------5-------7------5-----------------------------------------|X2
-|--3-------5-------7------5-----------------------------------------|
-|--3-------3-------5------3-----------------------------------------|
-|--1----------------------------------------------------------------|



Last chorus


Chorus   

Rythm Guitar
    F       C       Dm      C
-|-------------------------------------------------------------------|
-|-------------------------------------------------------------------|
-|----------5-------7------5-----------------------------------------|X4
-|--3-------5-------7------5-----------------------------------------|
-|--3-------3-------5------3-----------------------------------------|
-|--1----------------------------------------------------------------|







END!!!!1











Tap to rate this tab
# A B C D E F G H I J K L M N O P Q R S T U V W X Y Z