Guitaretab - guitar tabs
Song name
# A B C D E F G H I J K L M N O P Q R S T U V W X Y Z

Angry Amputees - Julianna Sang tab

-------------------------------------------------------------------------------
			     Julianna Sang - Angry Amputees
-------------------------------------------------------------------------------
Tabbed by: bloodred16	
Email: happytreefriends_firstblood@hotmail.com

An amazing song!! I've done the best i can for both guitars, i'm certain that if
it's not 100% accurate then its damn well close, so any corrections or tips on this
tab email them to me! cheers and Enjoi...

Tuning: Standard (EADGBe)

Intro
Riff A (x2)(Gtr.1)
e|---------------------------------------------------------------------------|
B|---------------------------------------------------------------------------|
G|---------------------------------------------------------------------------|
D|-----2-----2------4-----4------2-----2-4-4/6-4-2h4p2-2--------2-----2------|
A|1/4------4---4--2-----2---2--0-----0-------------------2---4------4---4----|
E|---------------------------------------------------------------------------|

e|---------------------------------------------------------------------------|
B|---------------------------------------------------------------------------|
G|---------------------------------------------------------------------------|
D|--4-----4------2-----2------2-2h4p2-2--------------------------------------|
A|2-----2---2--0-----0---0--0-----------2------------------------------------|
E|---------------------------------------------------------------------------|

Riff A1 (Gtr.2)
e|---------------------------------------------------------------------------|
B|---------------------------------------------------------------------------|
G|-------------------------------------------------------------9-------------|
D|-----2---4p2-----2/4--4-4-------------9--9-9-7p6p4--9--9-7p6-----------2---|
A|1/4----------4-------------7p6p4-7-9------------------------------1/4------|
E|---------------------------------------------------------------------------|

e|---------------------------------------------------------------------------|
B|---------------------------------------------------------------------------|
G|---------------------------------------------------------------------------|
D|4p2----2/4--4-4-------------11h14p11h14p11h14p11h14p11h14p11h14p11h14p11h14|
A|----4------------7p6p4-7-9-------------------------------------------------|
E|---------------------------------------------------------------------------|

Riff B (x3) then Fill A (Gtr.1)                            |-----Fill 1----| 
e|---------------------------------------------------------------------------|
B|---------------------------------------------------------------------------|
G|---------------------------------------------------------------------------|
D|-----2-2---2------4-4---4------2-2---2-4-4/6-4-2h4p2-2---------------------|
A|1/4------4---4--2-----2---2--0-----0-------------------2---77777777777777\\|
E|-----------------------------------------------------------55555555555555\\|
                                                             PM-----------|

Rhy. Fill. 1 (Gtr.2) - played over Riff B the first time around, then joins in
                       Riff B 2nd time it's played and plays Fill 1 as well!
e|---------------------------------------------------------------------------|
B|---------------------------------------------------------------------------|
G|-----------------------------------------2---------------------------------|
D|4-6----------6-4----------4-2------------2---------------------------------|
A|2-4----------4-2----------2-0------------0---------------------------------|
E|---------------------------------------------------------------------------|
                                           |-------------- 

"Hey girl, it's a pity that you went this way..."
  Rhy. Fig. 1 (x4)(Gtr.2)
e|---------------------------------------------------------------------------|
B|---------------------------------------------------------------------------|
G|6-6-6-6-66-4-4-4-4-44-2-2-2-2-22-2-2---------------------------------------|
D|6-6-6-6-66-4-4-4-4-44-2-2-2-2-22-2-2-2-2-22--------------------------------|
A|4-4-4-4-44-2-2-2-2-22-0-0-0-0-00-0-0-2-2-22--------------------------------|
E|-------------------------------------0-0-00--------------------------------|

Riff C (Gtr.1) - played w/Rhy. Fig. 1 for last 2 times!
e|---------------------------------------------------------------------------|
B|--------------------------------------12-12-10--9h10p9---------------------|
G|------11--9h11p9-------11-9--8h9p8---------------------9----9-11-9---------|
D|11-14------------11--9-------------9----------------------7---------11-14--|
A|---------------------------------------------------------------------------|
E|---------------------------------------------------------------------------|

e|---------------------------------------------------------------------------|
B|---------------------------------------------------------------------------|
G|11--9h11p9-------11-9--8h9p8----9----------------------9--9----\-----------|
D|-----------11--9-------------9--7----------------------7-------------------|
A|--------------------------------0----------------------0-------------------|
E|---------------------------------------------------------------------------|
                                  |----------------------   |----

"It was not for her..."
(Gtr.1 & Gtr.2)
e|---------------------------------------------------------------------------|
B|---------------------------------------------------------------------------|
G|2--2-2--2-2-2--2-4-6--6-6--6--2--2-2--2-2-2--2-4-6-------------------------|
D|2--2-2--2-2-2--2-4-6--6-6--6--2--2-2--2-2-2--2-4-6-------------------------|
A|0--0-0--0-0-0--0-2-4--4-4--4--0--0-0--0-0-0--0-2-4-------------------------|
E|---------------------------------------------------------------------------|
                                                   |--------
[ Tab from: http://www.guitaretab.com/a/angry-amputees/67612.html ]
Interlude
(Gtr.1)
e|---------------------------------------------------------------------------|
B|---------------------------------------------------------------------------|
G|---------------------------------------------------------------------------|
D|4/6-4-2-4-2h4p2------------------------------------------------------------|
A|---------------------------------------------------------------------------|
E|---------------------------------------------------------------------------|

"Now she'll trade it in..."
  Rhy. Fig. 2A (x4)(Gtr.2)   Rhy. Fig. 2B (x4)(Gtr.1) - played with Rhy. Fig. 3A
e|---------------------------------------------------------------------------|
B|---------------------------------------------------------------------------|
G|4-4-4-4-4-4-6-6-6-6-6-6------4-4-4-4-4-4-131313131313131313131313----------|
D|4-4-4-4-4-4-6-6-6-6-6-6------x-x-x-x-x-x--x-x-x-x-x-x-x-x-x-x-x-x----------|
A|2-2-2-2-2-2-4-4-4-4-4-4------2-2-2-2-2-2-111111111111111111111111----------|
E|---------------------------------------------------------------------------|

(Gtr.1)                                 
e|---------------------------------------------------------------------------|
B|---------------------------------------------------------------------------|
G|---------------------------------------------------------------------------|
D|-----2-2---2------4-4---4-------2-2-4442---2-2-2--2------------------------|
A|1/4------4---4--2-----2---2--0-------------0-0-0--0------------------------|
E|---------------------------------------------------------------------------|

"It coulda been so different..."
Rhy. Fig. 1 (x4)(Gtr.2), Riff C (Gtr.1) - played w/Rhy. Fig. 1 for last 2 times!

"It was not for her..."
 Rhy. Fig. 3 (x3)(Gtr.1 & Gtr.2)    *            Fill 2           *
e|---------------------------------------------------------------------------|
B|---------------------------------------------------------------------------|
G|2--2-2--2-2-2--2-4-6--6-6--6------2--2-2--2-2-2--2-4-6---------------------|
D|2--2-2--2-2-2--2-4-6--6-6--6------2--2-2--2-2-2--2-4-6---------------------|
A|0--0-0--0-0-0--0-2-4--4-4--4------0--0-0--0-0-0--0-2-4---------------------|
E|---------------------------------------------------------------------------|
                                                       |----------

(Gtr.2)
e|---------------------------------------------------------------------------|
B|---------------------------------------------------------------------------|
G|6-4----------44-2----------22-6----------66-4----------44-2----------------|
D|6-4----------44-2----------22-6----------66-4----------44-2----------------|
A|4-2----------22-0----------00-4----------44-2----------22-0----------------|
E|---------------------------------------------------------------------------|
    |---------    |---------    |---------    |---------    |---------

(Gtr.1)                                         (Gtr.2)
e|---------------------------------------------------------------------------|
B|---------------------------------------------------------------------------|
G|13131313131313131313131313131313---------------------6-6-6-6-6-6-6-6-------|
D|-x-x-x-x-x-x-x-x-x-x-x-x-x-x-x-x---------------------6-6-6-6-6-6-6-6-------|
A|11111111111111111111111111111111---------------------4-4-4-4-4-4-4-4-------|
E|---------------------------------------------------------------------------|

(Gtr.1)                                  (Gtr.2)
e|---------------------------------------------------------------------------|
B|---------------------------------------------------------------------------|
G|131313131313-1313-131313131313-1313-----------6-6-6-6-6-6--6-6--6-6-6-6-6-6|
D|-x-x-x-x-x-x--x-x--x-x-x-x-x-x--x-x-----------6-6-6-6-6-6--6-6--6-6-6-6-6-6|
A|111111111111-1111-111111111111-1111-----------4-4-4-4-4-4--4-4--4-4-4-4-4-4|
E|---------------------------------------------------------------------------|

"It's no secret,you're not to blame..."
Rhy. Fig. 4(x3)(Gtr.2)                        (Gtr.1)*      Fill 3(x2)      *
e|---------------------------------------------------------------------------|
B|---------------------------------------------------------------------------|
G|666666666666666--2---------------------------------13-13-11-13--11h13-14-13|
D|666666666666666--2---------2-----------------------------------------------|
A|444444444444444--0---------2-----------------------------------------------|
E|---------------------------0-----------------------------------------------|
                   |-------- |--------

(Gtr.1) - play this after fill 3 
e|---------------------------------------------------------------------------|
B|---------------------------------------------------------------------------|
G|---------------------------------------------------------------------------|
D|2/4--------4--6--2---------------------------------------------------------|
A|---------------------------------------------------------------------------|
E|---------------------------------------------------------------------------|
    |--------

(Gtr.2)
e|---------------------------------------------------------------------------|
B|---------------------------------------------------------------------------|
G|---------------------------------------------------------------------------|
D|4-6------------------------------------------------------------------------|
A|2-4------------------------------------------------------------------------|
E|---------------------------------------------------------------------------|

Riff B (x4)(Gtr.1), 

Outro (Gtr.2)
e|---------------------------------------------------------------------------|
B|---------------------------------------------------------------------------|
G|---------------------------------------------------------------------------|
D|-----2-4--2h4p2------4-2--2h4p2----4/9-9-7--6h7p6----2--4-2-------2-4-2h4p2|
A|1/4-------------4--2------------2-----------------7--0--2----1/4-----------|
E|---------------------------------------------------------------------------|

e|--------------------------------------12-----------------------------------|
B|--------------------------------10-9---------------------------------------|
G|---------------------------------------------------------------------------|
D|------4-2--2h4p2----2-----/7-----------------------------------------------|
A|-4--2------------2---------------------------------------------------------|
E|---------------------------------------------------------------------------|
                      |-----             |-----------------------------------


| /  slide up
| \  slide down
| h  hammer-on
| p  pull-off
| x  Mute note
|PM-|Palm Mute
||-- Hold or sustain note
===============================================================================
Related for Julianna Sang tab