Song name
# A B C D E F G H I J K L M N O P Q R S T U V W X Y Z

Angry Aryans - Bl Plague Terror tab

Verse/Intro:
E|-------------------------------------------|
H|-------------------------------------------|
G|-------------------------------------------|
D|-------------------------------------------|
A|:5-8-5-8-11-10-5-8-5-8---------------------|
E|:3-6-3-6--9--8-3-6-3-6---------------------|

E|-------------------------------------------|
H|-------------------------------------------|
G|-------------------------------------------|
D|-------------------------------------------|
A|5-8-5-8-11-10-5-8-5-6:---------------------|
E|3-6-3-6--9--8-3-6-3-4:---------------------|
Tap to rate this tab
# A B C D E F G H I J K L M N O P Q R S T U V W X Y Z