Song name
# A B C D E F G H I J K L M N O P Q R S T U V W X Y Z

Angry Aryans - White N Loser tab

Intro:
E|-------------------------------------------|
H|-------------------------------------------|
G|-------------------------------------------|
D|-------------------------------------------|
A|5-5555555555-5-5555555555-33---------------|
E|3-3333333333-3-3333333333-11---------------|

Verse:
E|-------------------------------------------|
H|-------------------------------------------|
G|-------------------------------------------|
D|:---------7776-3-5-3--------xxx-7776-3-5-3:|
A|:5-555555-5554-1-3-1---5-555555-5554-1-3-1:|
E|:3-333333--------------3-333333-----------:|
Tap to rate this tab
 
# A B C D E F G H I J K L M N O P Q R S T U V W X Y Z