Song name
# A B C D E F G H I J K L M N O P Q R S T U V W X Y Z

Angry Bird - Stand Up Together tab

intro : D major
e ---------------------------------|
b ---------------------------------|
g ---------------------------------|
d -6-79--6-79--9-1112---9-1112-----|
a -4-57--4-57--7--910----7-910-----|
E ---------------------------------|

e ------------------------------|
b ------------------------------|
g ------------------------------|
d -77--77-7p0-5p0-4p0-2h4-------|
a -55--55-----------------------|
E ------------------------------|

e ---------------------------------|
b ---------------------------------|
g ---------------------------------|
d -77--77-7p0-5p0-4p0-5h7----------|
a -55--55--------------------------|
E ---------------------------------|

e -------------------------------|
b -------------------------------|
g -------------------------------|
d -77--77-7p0-5p0-7~~~-----------|
a -55--55------------------------|
E -------------------------------|
Tap to rate this tab
 
# A B C D E F G H I J K L M N O P Q R S T U V W X Y Z