Song name
# A B C D E F G H I J K L M N O P Q R S T U V W X Y Z

Angry Samoans - Homosexual tab

-------------------------------------------------------------------------------
Homo-sexual - Angry Samoans
Back To Samoa
-------------------------------------------------------------------------------
Tabbed by: axeslash
Email: holmzito@yahoo.com

Tuning: Standard Tuning

e|-------------------------------------------------------------|
B|-------------------------------------------------------------|
G|-------------------------------------------------9-----9-----|
D|-------------------------------------------------9--9--9--9--|
A|-------------------------------------------------7--9--7--9--|
E|-7-7-7-7-7-7-7-7-7-7-7-7-7-7-7-7-5-5-5-5-5-5-5-5----7-----7--| x4

e|---------------------------------|     e|-------------------------------------------------|
B|---------------------------------|     B|-------------------------------------------------|
G|-7-7-7-7-7-7-7-7-----------------|     G|-7-7-7-7-7-7-7-7---------------------------------|
D|-7-7-7-7-7-7-7-7-9-9-9-9-9-9-9-9-|     D|-7-7-7-7-7-7-7-7-7-7-7-7-7-7-7-7-7-7-7-7-7-7-7-7-|
A|-5-5-5-5-5-5-5-5-9-9-9-9-9-9-9-9-|     A|-5-5-5-5-5-5-5-5-7-7-7-7-7-7-7-7-7-7-7-7-7-7-7-7-|
E|-----------------7-7-7-7-7-7-7-7-| x3  E|-----------------5-5-5-5-5-5-5-5-5-5-5-5-5-5-5-5-|

e|-------------------------------------------------------------|
B|-------------------------------------------------------------|
G|-------------------------------------------------9-----9-----|
D|-------------------------------------------------9--9--9--9--|
A|-------------------------------------------------7--9--7--9--|
E|-7-7-7-7-7-7-7-7-7-7-7-7-7-7-7-7-5-5-5-5-5-5-5-5----7-----7--| x2

e|---------------------------------|     e|-------------------------------------------------|
B|---------------------------------|     B|-------------------------------------------------|
G|-7-7-7-7-7-7-7-7-----------------|     G|-7-7-7-7-7-7-7-7---------------------------------|
D|-7-7-7-7-7-7-7-7-9-9-9-9-9-9-9-9-|     D|-7-7-7-7-7-7-7-7-7-7-7-7-7-7-7-7-7-7-7-7-7-7-7-7-|
A|-5-5-5-5-5-5-5-5-9-9-9-9-9-9-9-9-|     A|-5-5-5-5-5-5-5-5-7-7-7-7-7-7-7-7-7-7-7-7-7-7-7-7-|
E|-----------------7-7-7-7-7-7-7-7-| x3  E|-----------------5-5-5-5-5-5-5-5-5-5-5-5-5-5-5-5-|

e|-------------------------------------------------------------|
B|-------------------------------------------------------------|
G|-------------------------------------------------9-----9-----|
D|-------------------------------------------------9--9--9--9--|
A|-------------------------------------------------7--9--7--9--|
E|-7-7-7-7-7-7-7-7-7-7-7-7-7-7-7-7-5-5-5-5-5-5-5-5----7-----7--| x2


e|---------------------------------|     e|-------------------------------------------------|
B|---------------------------------|     B|-------------------------------------------------|
G|-7-7-7-7-7-7-7-7-----------------|     G|-7-7-7-7-7-7-7-7---------------------------------|
D|-7-7-7-7-7-7-7-7-9-9-9-9-9-9-9-9-|     D|-7-7-7-7-7-7-7-7-7-7-7-7-7-7-7-7-7-7-7-7-7-7-7-7-|
A|-5-5-5-5-5-5-5-5-9-9-9-9-9-9-9-9-|     A|-5-5-5-5-5-5-5-5-7-7-7-7-7-7-7-7-7-7-7-7-7-7-7-7-|
E|-----------------7-7-7-7-7-7-7-7-| x3  E|-----------------5-5-5-5-5-5-5-5-5-5-5-5-5-5-5-5-|


e|---------------------------------|     e|-------------------------------------------------|
B|---------------------------------|     B|-------------------------------------------------|
G|-7-7-7-7-7-7-7-7-----------------|     G|-7-7-7-7-7-7-7-7---------------------------------|
D|-7-7-7-7-7-7-7-7-9-9-9-9-9-9-9-9-|     D|-7-7-7-7-7-7-7-7-7-7-7-7-7-7-7-7-7-7-7-7-7-7-7-7-|
A|-5-5-5-5-5-5-5-5-9-9-9-9-9-9-9-9-|     A|-5-5-5-5-5-5-5-5-7-7-7-7-7-7-7-7-7-7-7-7-7-7-7-7-|
E|-----------------7-7-7-7-7-7-7-7-| x3  E|-----------------5-5-5-5-5-5-5-5-5-5-5-5-5-5-5-5-|


| /  slide up
| \  slide down
| h  hammer-on
| p  pull-off
| ~  vibrato
| +  harmonic
| x  Mute note
===============================================================================
Tap to rate this tab
 
# A B C D E F G H I J K L M N O P Q R S T U V W X Y Z