Song name
# A B C D E F G H I J K L M N O P Q R S T U V W X Y Z

Angry Samoans - Coffin Case tab

-------------------------------------------------------------------------------
Coffin Case - Angry Samoans
Back to Samoa
-------------------------------------------------------------------------------
Tabbed by: axeslash
Email: holmzito@yahoo.com

Tuning: Both guitars standard (EADGBE)

Guitar 1:
e|------------------------------------------------------------------------|
B|------------------------------------------------------------------------|
G|------------------------------------------------------------------------|
D|----------------8-8-8-8-8-8-8-8-------------------------10------10------|
A|-8--8-8-8-8-8-8-6-6-6-6-6-6-6-6-10-10-10-10-10-10-10-10--8--10---8--10--|
E|-6--6-6-6-6-6-6------------------8--8--8--8--8--8--8--8------8-------8--|
Guitar 2:
e|------------------------------------------------------------------------|
B|------------------------------------------------------------------------|
G|------------------------------------------------------------------------|
D|--------------------------------------------------------10------10------|
A|---------------------------------------------------------8--10---8--10--|
E|-------------------------------------------------------------8-------8--|

Guitars 1 & 2:
e|------------------------------------------------------------------------|
B|------------------------------------------------------------------------|
G|------------------------------------------------------------------------|
D|----------------8-8-8-8-8-8-8-8-------------------------10------10------|
A|-8--8-8-8-8-8-8-6-6-6-6-6-6-6-6-10-10-10-10-10-10-10-10--8--10---8--10--|
E|-6--6-6-6-6-6-6------------------8--8--8--8--8--8--8--8------8-------8--| x3

Guitars 1 & 2:
e|---------------------------------------------------------------------|
B|---------------------------------------------------------------------|
G|---------------------------------------------------------------------|
D|-----------------6-6-6-6-6-6-6-6-------------------------------------|
A|-6-6-6-6-6-6-6-6-4-4-4-4-4-4-4-4-8-8-8-8-8-8-8-8-8-8-8-8-3--3--3--3--|
E|-4-4-4-4-4-4-4-4-----------------6-6-6-6-6-6-6-6-6-6-6-6-1--1--1--1--| x3

Guitars 1 & 2:
e|-----------------------------------------------------------|
B|-----------------------------------------------------------|
G|-----------------------------------------------------------|
D|-----------------6-6-6-6-6-6-6-6---------------------------|
A|-6-6-6-6-6-6-6-6-4-4-4-4-4-4-4-4-8\3--3--3--3--3--3--3--3--|
E|-4-4-4-4-4-4-4-4-----------------6\1--1--1--1--1--1--1--1--|

Guitars 1 & 2:
e|------------------------------------------------------------------------|
B|------------------------------------------------------------------------|
G|------------------------------------------------------------------------|
D|----------------8-8-8-8-8-8-8-8-------------------------10------10------|
A|-8--8-8-8-8-8-8-6-6-6-6-6-6-6-6-10-10-10-10-10-10-10-10--8--10---8--10--|
E|-6--6-6-6-6-6-6------------------8--8--8--8--8--8--8--8------8-------8--| x3

Guitars 1 & 2:
e|--------------------------------------------------------------------|
B|--------------------------------------------------------------------|
G|--------------------------------------------------------------------|
D|----------------8-8-8-8-8-8-8-8-------------------------10------10--|
A|-8--8-8-8-8-8-8-6-6-6-6-6-6-6-6-10-10-10-10-10-10-10-10--8--10---8--|
E|-6--6-6-6-6-6-6------------------8--8--8--8--8--8--8--8------8------|


| /  slide up
| \  slide down
| h  hammer-on
| p  pull-off
| ~  vibrato
| +  harmonic
| x  Mute note
===============================================================================
Tap to rate this tab
# A B C D E F G H I J K L M N O P Q R S T U V W X Y Z