Guitaretab - guitar tabs
Song name
# A B C D E F G H I J K L M N O P Q R S T U V W X Y Z

Angry Samoans - Carson Girls tab

You can go ahead and figure out the rythem by yourself, it's pretty easy

Intro

-0-0-0-0-0-0-0-0-0-0-0-0-0-0-0-0-0-0------------------|
-0-0-0-0-0-0-0-0-2-0-0-2-2-2-2-2-2-2------------------|
------------------------------------------------------|
--------------------------------------9-9-9---9-9-9---|
--------------------------------------9-9-9---9-9-9---|
--------------------------------------7-7-7---7-7-7---|

-0-0-0-0-0-0-0-0-0-0-0-0-0-0-0-0-0-0------------------|
-0-0-0-0-0-0-0-0-2-0-0-2-2-2-2-2-2-2------------------|
------------------------------------------------------|
--------------------------------------9-9---9-9-------|
--------------------------------------9-9---9-9-------|
--------------------------------------7-7---7-7-------|


Verse
-----------------------------------------------------------------|
-----------------------------------------------------------------|
----------------------------------------------------9-9----------|
-7-7-7-7-7-7----11-11-11-11-11-11----9-9-9-9-9-9----9-9----9-9-9-|
-7-7-7-7-7-7----11-11-11-11-11-11----9-9-9-9-9-9----7-7----9-9-9-|
-5-5-5-5-5-5----9--9--9--9--9--9-----7-7-7-7-7-7-----------7-7-7-|  2x

Pre-Chorus
-----------------------------------------------------|
-----------------------------------------------------|
---------------------9---9-9---9-9-------------------|
-6------7------9-----9---9-9---9-9-------------------|
-6-8x---7-8x---9-8x--7---7-7---7-7-------------------|
-4------5------7-------------------------------------|
 pm    pm      pm

[ Tab from: http://www.guitaretab.com/a/angry-samoans/114241.html ]
------------------------------------------------------|
------------------------------------------------------|
------------------------------------------------------|
-6------7------9---------9-9---9-9--------------------|
-6-8x---7-8x---9-8x------9-9---9-9--------------------|
-4------5------7---------7-7---7-7--------------------|
 pm    pm     pm


Chorus

------------------------------------------------------|
------------------------------------------------------|
----------------------------9-9-----------------------|
-7------9------11--11--11---9-9-9---7--9--------------|
-7-8x---9-8x---11--11--11---7-7-9---7--9--------------|
-5------7------9---9---9--------7---5--7--------------|


------------------------------------------------------|
------------------------------------------------------|
-----------------7-------------------7----------------|
-7------9--------7-7---5-5---9-------7-7---5-5---9----|
-7-8x---9-8x-----5-7---5-5---9-8x----5-7---5-5---9-8x-|
-5------7----------5---3-3---7---------5---3-3---7----|

Intro
Verse
Pre-Chorus
Chorus

Not really sure about this part, just fake it
------------------------------------------------------|
------------------------------------------------------|
-13--13-13--13--13-13--9--9-9---11--11-11-------------|
-13--13-13--13--13-13--9--9-9---11--11-11-------------|
------------------------------------------------------|
------------------------------------------------------| 2x


------------------------------------------------------|
------------------------------------------------------|
-7-----------------------9----------------------------|
-7-7---5-5---9-----------9-9---7-7--11----------------|
-5-7---5-5---9-8x--------7-9---7-7--11-8x-------------|
---5---3-3---7-------------7---5-5---9----------------|
Play the begining part twice, then play the last part twice

Intro
Verse
Pre-Chorus
Chorus

The ending is just the chorus except you hold the last notes for a while

If you figure out that one part I wasnt sure about, my email is crimsongho5t@yahoo.com
Related for Carson Girls tab
Advertisement will be closed in 10 seconds