Guitaretab - guitar tabs
Song name
# A B C D E F G H I J K L M N O P Q R S T U V W X Y Z

Angry Samoans - Gas Chamber tab

-------------------------------------------------------------------------------
Gas Chamber - Angry Samoans
Back From Samoa
-------------------------------------------------------------------------------
Tabbed by: axeslash
Email: holmzito@yahoo.com

Tuning: Both guitars standard

Guitar 1:                                Guitars 1 & 2:
e|--------------------------------|     e|--------------------------------|
B|--------------------------------|     B|--------------------------------|
G|------------------------4-4-4-4-|     G|------------------------4-4-4-4-|
D|-6-6-6-6-6-6-6-6-4--4-4-4-4-4-4-|     D|-6-6-6-6-6-6-6-6-4--4-4-4-4-4-4-|
A|-6-6-6-6-6-6-6-6-4--4-4-2-2-2-2-|     A|-6-6-6-6-6-6-6-6-4--4-4-2-2-2-2-|
E|-4-4-4-4-4-4-4-4-2--2-2---------| x2  E|-4-4-4-4-4-4-4-4-2--2-2---------| x6

Guitars 1 & 2:
e|---------------------------------|
B|---------------------------------|
G|-6-6-6-6-6-6-6-6-2--2-4--4-4-4-4-|
D|-6-6-6-6-6-6-6-6-2--2-4--4-4-4-4-|
A|-4-4-4-4-4-4-4-4-0--0-2--2-2-2-2-|
E|---------------------------------| x4

Guitars  1 & 2:
e|------------------------------------------------|
B|------------------------------------------------|
G|---------6--6-6---------4--4-4-9-----9------9---|
D|-8-8-8-8-6--6-6-6-6-6-6-4--4-4-9--9--9----9-9-9-|
A|-8-8-8-8-4--4-4-6-6-6-6-2--2-2-7--9--7----9-7-9-|
E|-6-6-6-6--------4-4-4-4-----------7-------7---7-|
[ Tab from: http://www.guitaretab.com/a/angry-samoans/163789.html ]
Guitar 1:                                Guitars 1 & 2:
e|--------------------------------|     e|--------------------------------|
B|--------------------------------|     B|--------------------------------|
G|------------------------4-4-4-4-|     G|------------------------4-4-4-4-|
D|-6-6-6-6-6-6-6-6-4--4-4-4-4-4-4-|     D|-6-6-6-6-6-6-6-6-4--4-4-4-4-4-4-|
A|-6-6-6-6-6-6-6-6-4--4-4-2-2-2-2-|     A|-6-6-6-6-6-6-6-6-4--4-4-2-2-2-2-|
E|-4-4-4-4-4-4-4-4-2--2-2---------| x2  E|-4-4-4-4-4-4-4-4-2--2-2---------| x6

Guitars 1 & 2:
e|---------------------------------|
B|---------------------------------|
G|-6-6-6-6-6-6-6-6-2--2-4--4-4-4-4-|
D|-6-6-6-6-6-6-6-6-2--2-4--4-4-4-4-|
A|-4-4-4-4-4-4-4-4-0--0-2--2-2-2-2-|
E|---------------------------------| x4

Guitars 1 & 2:
e|----------------------------------------------------------------------------------|
B|----------------------------------------------------------------------------------|
G|------------------------4-4-6--6-6-6-6------------------------4-4-6--6-6-6--6--6--|
D|-2-2-4-4-7--7-7-7-7-4-4-4-4-6--6-6-6-6-2-2-4-4-7--7-7-7-7-4-4-4-4-6--6-6-6--6--6--|
A|-2-2-4-4-7--7-7-7-7-4-4-2-2-4--4-4-4-4-2-2-4-4-7--7-7-7-7-4-4-2-2-4--4-4-4--4--4--|
E|-0-0-2-2-5--5-5-5-5-2-2----------------0-0-2-2-5--5-5-5-5-2-2---------------------|

Guitars 1 & 2:
e|------------------------------------------------------------|
B|------------------------------------------------------------|
G|------------------------4-4-6--6-6-6-6----------------------|
D|-2-2-4-4-7--7-7-7-7-4-4-4-4-6--6-6-6-6-2-2-4----4--4--4--4--|
A|-2-2-4-4-7--7-7-7-7-4-4-2-2-4--4-4-4-4-2-2-4----4--4--4--4--|
E|-0-0-2-2-5--5-5-5-5-2-2----------------0-0-2----2--2--2--2--|


| /  slide up
| \  slide down
| h  hammer-on
| p  pull-off
| ~  vibrato
| +  harmonic
| x  Mute note
===============================================================================
Related for Gas Chamber tab
Advertisement will be closed in 10 seconds