Song name
# A B C D E F G H I J K L M N O P Q R S T U V W X Y Z

Angry Samoans - Time To Fuck tab

Angry Samoans - Time to Fuck

Album: - Queer Pills 7"
       - Return from Samoa 12"

---------------------------------------------------|
---------------------------------------------------|
--9-9--5-5--7-7------------7-7--9-9--5-5-----------|
--9-9--5-5--7-7--5-5--5-5--7-7--9-9--5-5-----------|
--7-7--3-3--5-5--5-5--5-5--5-5--7-7--3-3-----------|
-----------------3-3--3-3--------------------------|



---------------------------------------------------|
---------------------------------------------------|
--7-7-7-5--5-5-5-5-5-------5-5-5-5-5-5-------------|
--7-7-7-5--5-5-5-5-5-5-5-5-5-5-5-5-5-5-------------|
--5-5-5-3--3-3-3-3-3-5-5-5-3-3-3-3-3-3-------------|
---------------------3-3-3-------------------------|

That's pretty much the Whole Song!
You have just to figure out how often you play the Tabs!
Tap to rate this tab
# A B C D E F G H I J K L M N O P Q R S T U V W X Y Z