Song name
# A B C D E F G H I J K L M N O P Q R S T U V W X Y Z

Angry Samoans - They Saved Hitlers Cock tab

-------------------------------------------------------------------------------
	            THEY SAVED HITLERS COCK - Angry Samoans
-------------------------------------------------------------------------------
Tabbed by: Stefan 
Email: stehphyn@yahoo.com

Tuning: standard (EADGBe)

e|----------------------------|
B|----------------------------|
G|----------------------------|
D|----------------------------|
A|-------7-6---4--4-4--7-6-4--|
E|-5--5------5----------------|

e|---------------------------------|
B|---------------------------------|
G|-7-7-7-7-7-7-7-7-5-5-5-5-5-5-5-5-|
D|-7-7-7-7-7-7-7-7-5-5-5-5-5-5-5-5-|
A|-5-5-5-5-5-5-5-5-3-3-3-3-3-3-3-3-|
E|---------------------------------|
Tap to rate this tab
# A B C D E F G H I J K L M N O P Q R S T U V W X Y Z